999
dxfrw 0.6.3
  0
SECTION
  2
HEADER
  9
$ACADVER
  1
AC1021
  9
$DWGCODEPAGE
  3
ANSI_1252
  9
$INSBASE
 10
0
 20
0
 30
0
  9
$EXTMIN
 10
0
 20
0
 30
0
  9
$EXTMAX
 10
420
 20
297.9027355623103
 30
0
  9
$LIMMIN
 10
0
 20
0
  9
$LIMMAX
 10
420
 20
297
  9
$ORTHOMODE
 70
    0
  9
$REGENMODE
 70
    1
  9
$FILLMODE
 70
    1
  9
$QTEXTMODE
 70
    0
  9
$MIRRTEXT
 70
    0
  9
$LTSCALE
 40
1
  9
$ATTMODE
 70
    0
  9
$TEXTSIZE
 40
2.5
  9
$TRACEWID
 40
15.68
  9
$TEXTSTYLE
  7
STANDARD
  9
$CLAYER
  8
0
  9
$CELTYPE
  6
BYLAYER
  9
$CECOLOR
 62
  256
  9
$CELTSCALE
 40
1
  9
$DISPSILH
 70
    0
  9
$DIMSCALE
 40
2.5
  9
$DIMASZ
 40
2.5
  9
$DIMEXO
 40
0.625
  9
$DIMDLI
 40
3.75
  9
$DIMRND
 40
0
  9
$DIMDLE
 40
0
  9
$DIMEXE
 40
1.25
  9
$DIMTP
 40
0
  9
$DIMTM
 40
0
  9
$DIMTXT
 40
2.5
  9
$DIMCEN
 40
2.5
  9
$DIMTSZ
 40
0
  9
$DIMTOL
 70
    0
  9
$DIMLIM
 70
    0
  9
$DIMTIH
 70
    0
  9
$DIMTOH
 70
    0
  9
$DIMSE1
 70
    0
  9
$DIMSE2
 70
    0
  9
$DIMTAD
 70
    1
  9
$DIMZIN
 70
    8
  9
$DIMBLK
  1

  9
$DIMASO
 70
    1
  9
$DIMSHO
 70
    1
  9
$DIMPOST
  1

  9
$DIMAPOST
  1

  9
$DIMALT
 70
    0
  9
$DIMALTD
 70
    3
  9
$DIMALTF
 40
0.03937
  9
$DIMLFAC
 40
1
  9
$DIMTOFL
 70
    1
  9
$DIMTVP
 40
0
  9
$DIMTIX
 70
    0
  9
$DIMSOXD
 70
    0
  9
$DIMSAH
 70
    0
  9
$DIMBLK1
  1

  9
$DIMBLK2
  1

  9
$DIMSTYLE
  2
STANDARD
  9
$DIMCLRD
 70
    0
  9
$DIMCLRE
 70
    0
  9
$DIMCLRT
 70
    0
  9
$DIMTFAC
 40
1
  9
$DIMGAP
 40
0.625
  9
$DIMJUST
 70
    0
  9
$DIMSD1
 70
    0
  9
$DIMSD2
 70
    0
  9
$DIMTOLJ
 70
    0
  9
$DIMTZIN
 70
    8
  9
$DIMALTZ
 70
    0
  9
$DIMALTTZ
 70
    0
  9
$DIMUPT
 70
    0
  9
$DIMDEC
 70
    2
  9
$DIMTDEC
 70
    2
  9
$DIMALTU
 70
    2
  9
$DIMALTTD
 70
    3
  9
$DIMTXSTY
  7
STANDARD
  9
$DIMAUNIT
 70
    0
  9
$DIMADEC
 70
    0
  9
$DIMALTRND
 40
0
  9
$DIMAZIN
 70
    0
  9
$DIMDSEP
 70
   44
  9
$DIMATFIT
 70
    3
  9
$DIMFRAC
 70
    0
  9
$DIMLDRBLK
  1
STANDARD
  9
$DIMLUNIT
 70
    2
  9
$DIMLWD
 70
   -2
  9
$DIMLWE
 70
   -2
  9
$DIMTMOVE
 70
    0
  9
$DIMFXL
 40
1
  9
$DIMFXLON
 70
    0
  9
$DIMJOGANG
 40
0.7854
  9
$DIMTFILL
 70
    0
  9
$DIMTFILLCLR
 70
    0
  9
$DIMARCSYM
 70
    0
  9
$DIMLTYPE
  6

  9
$DIMLTEX1
  6

  9
$DIMLTEX2
  6

  9
$LUNITS
 70
    2
  9
$LUPREC
 70
    4
  9
$SKETCHINC
 40
1
  9
$FILLETRAD
 40
0
  9
$AUNITS
 70
    0
  9
$AUPREC
 70
    2
  9
$MENU
  1
.
  9
$ELEVATION
 40
0
  9
$PELEVATION
 40
0
  9
$THICKNESS
 40
0
  9
$LIMCHECK
 70
    0
  9
$CHAMFERA
 40
0
  9
$CHAMFERB
 40
0
  9
$CHAMFERC
 40
0
  9
$CHAMFERD
 40
0
  9
$SKPOLY
 70
    0
  9
$USRTIMER
 70
    1
  9
$ANGBASE
 50
0
  9
$ANGDIR
 70
    0
  9
$PDMODE
 70
   34
  9
$PDSIZE
 40
0
  9
$PLINEWID
 40
0
  9
$SPLFRAME
 70
    0
  9
$SPLINETYPE
 70
    2
  9
$SPLINESEGS
 70
    8
  9
$HANDSEED
  5
20000
  9
$SURFTAB1
 70
    6
  9
$SURFTAB2
 70
    6
  9
$SURFTYPE
 70
    6
  9
$SURFU
 70
    6
  9
$SURFV
 70
    6
  9
$UCSBASE
  2

  9
$UCSNAME
  2

  9
$UCSORG
 10
0
 20
0
 30
0
  9
$UCSXDIR
 10
1
 20
0
 30
0
  9
$UCSYDIR
 10
0
 20
1
 30
0
  9
$UCSORTHOREF
  2

  9
$UCSORTHOVIEW
 70
    0
  9
$UCSORGTOP
 10
0
 20
0
 30
0
  9
$UCSORGBOTTOM
 10
0
 20
0
 30
0
  9
$UCSORGLEFT
 10
0
 20
0
 30
0
  9
$UCSORGRIGHT
 10
0
 20
0
 30
0
  9
$UCSORGFRONT
 10
0
 20
0
 30
0
  9
$UCSORGBACK
 10
0
 20
0
 30
0
  9
$PUCSBASE
  2

  9
$PUCSNAME
  2

  9
$PUCSORG
 10
0
 20
0
 30
0
  9
$PUCSXDIR
 10
1
 20
0
 30
0
  9
$PUCSYDIR
 10
0
 20
1
 30
0
  9
$PUCSORTHOREF
  2

  9
$PUCSORTHOVIEW
 70
    0
  9
$PUCSORGTOP
 10
0
 20
0
 30
0
  9
$PUCSORGBOTTOM
 10
0
 20
0
 30
0
  9
$PUCSORGLEFT
 10
0
 20
0
 30
0
  9
$PUCSORGRIGHT
 10
0
 20
0
 30
0
  9
$PUCSORGFRONT
 10
0
 20
0
 30
0
  9
$PUCSORGBACK
 10
0
 20
0
 30
0
  9
$USERI1
 70
    0
  9
$USERI2
 70
    0
  9
$USERI3
 70
    0
  9
$USERI4
 70
    0
  9
$USERI5
 70
    0
  9
$USERR1
 40
0
  9
$USERR2
 40
0
  9
$USERR3
 40
0
  9
$USERR4
 40
0
  9
$USERR5
 40
0
  9
$WORLDVIEW
 70
    1
  9
$SHADEDGE
 70
    3
  9
$SHADEDIF
 70
   70
  9
$TILEMODE
 70
    1
  9
$MAXACTVP
 70
   64
  9
$PINSBASE
 10
0
 20
0
 30
0
  9
$PLIMCHECK
 70
    0
  9
$PEXTMIN
 10
0
 20
0
 30
0
  9
$PEXTMAX
 10
0
 20
0
 30
0
  9
$GRIDMODE
 70
    1
  9
$SNAPSTYLE
 70
    0
  9
$PLIMMIN
 10
0
 20
0
  9
$PLIMMAX
 10
210
 20
297
  9
$UNITMODE
 70
    0
  9
$VISRETAIN
 70
    1
  9
$PLINEGEN
 70
    0
  9
$PSLTSCALE
 70
    1
  9
$TREEDEPTH
 70
 3020
  9
$CMLSTYLE
  2
Standard
  9
$CMLJUST
 70
    0
  9
$CMLSCALE
 40
20
  9
$PROXYGRAPHICS
 70
    1
  9
$MEASUREMENT
 70
    1
  9
$CELWEIGHT
370
   -1
  9
$ENDCAPS
280
    0
  9
$JOINSTYLE
280
    0
  9
$LWDISPLAY
290
    0
  9
$INSUNITS
 70
    0
  9
$HYPERLINKBASE
  1

  9
$STYLESHEET
  1

  9
$XEDIT
290
    1
  9
$CEPSNTYPE
380
    0
  9
$PSTYLEMODE
290
    1
  9
$EXTNAMES
290
    1
  9
$PSVPSCALE
 40
1
  9
$OLESTARTUP
290
    0
  9
$SORTENTS
280
  127
  9
$INDEXCTL
280
    0
  9
$HIDETEXT
280
    1
  9
$XCLIPFRAME
290
    0
  9
$HALOGAP
280
    0
  9
$OBSCOLOR
 70
  257
  9
$OBSLTYPE
280
    0
  9
$INTERSECTIONDISPLAY
280
    0
  9
$INTERSECTIONCOLOR
 70
  257
  9
$DIMASSOC
280
    1
  9
$PROJECTNAME
  1

  9
$CAMERADISPLAY
290
    0
  9
$LENSLENGTH
 40
50
  9
$CAMERAHEIGHT
 40
0
  9
$STEPSPERSEC
 40
2
  9
$STEPSIZE
 40
50
  9
$3DDWFPREC
 40
2
  9
$PSOLWIDTH
 40
5
  9
$PSOLHEIGHT
 40
80
  9
$LOFTANG1
 40
1.570796326794897
  9
$LOFTANG2
 40
1.570796326794897
  9
$LOFTMAG1
 40
0
  9
$LOFTMAG2
 40
0
  9
$LOFTPARAM
 70
    7
  9
$LOFTNORMALS
280
    1
  9
$LATITUDE
 40
1
  9
$LONGITUDE
 40
1
  9
$NORTHDIRECTION
 40
0
  9
$TIMEZONE
 70
-8000
  9
$LIGHTGLYPHDISPLAY
280
    1
  9
$TILEMODELIGHTSYNCH
280
    1
  9
$SOLIDHIST
280
    1
  9
$SHOWHIST
280
    1
  9
$DWFFRAME
280
    2
  9
$DGNFRAME
280
    0
  9
$REALWORLDSCALE
290
    1
  9
$INTERFERECOLOR
 62
    1
  9
$CSHADOW
280
    0
  9
$SHADOWPLANELOCATION
 40
0
  0
ENDSEC
  0
SECTION
  2
CLASSES
  0
ENDSEC
  0
SECTION
  2
TABLES
  0
TABLE
  2
VPORT
  5
8
330
0
100
AcDbSymbolTable
 70
    1
  0
VPORT
  5
31
330
2
100
AcDbSymbolTableRecord
100
AcDbViewportTableRecord
  2
*ACTIVE
 70
    0
 10
0
 20
0
 11
1
 21
1
 12
225.9555471124622
 22
151.2500000000001
 13
0
 23
0
 14
10
 24
10
 15
10
 25
10
 16
0
 26
0
 36
1
 17
0
 27
0
 37
0
 40
307.0972644376902
 41
1.573353293413174
 42
50
 43
0
 44
0
 50
0
 51
0
 71
    0
 72
  100
 73
    1
 74
    3
 75
    0
 76
    1
 77
    0
 78
    0
281
    0
 65
    1
110
0
120
0
130
0
111
1
121
0
131
0
112
0
122
1
132
0
 79
    0
146
0
348
10020
 60
    7
 61
    5
292
1
282
    1
141
0
142
0
 63
  250
421
3358443
  0
ENDTAB
  0
TABLE
  2
LTYPE
  5
5
330
0
100
AcDbSymbolTable
 70
    4
  0
LTYPE
  5
14
330
5
100
AcDbSymbolTableRecord
100
AcDbLinetypeTableRecord
  2
ByBlock
 70
    0
  3

 72
   65
 73
    0
 40
0
  0
LTYPE
  5
15
330
5
100
AcDbSymbolTableRecord
100
AcDbLinetypeTableRecord
  2
ByLayer
 70
    0
  3

 72
   65
 73
    0
 40
0
  0
LTYPE
  5
16
330
5
100
AcDbSymbolTableRecord
100
AcDbLinetypeTableRecord
  2
Continuous
 70
    0
  3
Solid line
 72
   65
 73
    0
 40
0
  0
LTYPE
  5
32
330
5
100
AcDbSymbolTableRecord
100
AcDbLinetypeTableRecord
  2
DOT
 70
    0
  3
Dot . . . . . . . . . . . . . . . . . . . . . .
 72
   65
 73
    2
 40
6.35
 49
0
 74
    0
 49
-6.35
 74
    0
  0
LTYPE
  5
33
330
5
100
AcDbSymbolTableRecord
100
AcDbLinetypeTableRecord
  2
DOTTINY
 70
    0
  3
Dot (.15x) .....................................
 72
   65
 73
    2
 40
0.9525
 49
0
 74
    0
 49
-0.9525
 74
    0
  0
LTYPE
  5
34
330
5
100
AcDbSymbolTableRecord
100
AcDbLinetypeTableRecord
  2
DOT2
 70
    0
  3
Dot (.5x) .....................................
 72
   65
 73
    2
 40
3.175
 49
0
 74
    0
 49
-3.175
 74
    0
  0
LTYPE
  5
35
330
5
100
AcDbSymbolTableRecord
100
AcDbLinetypeTableRecord
  2
DOTX2
 70
    0
  3
Dot (2x) .  .  .  .  .  .  .  .  .  .  .  .  .
 72
   65
 73
    2
 40
12.7
 49
0
 74
    0
 49
-12.7
 74
    0
  0
LTYPE
  5
36
330
5
100
AcDbSymbolTableRecord
100
AcDbLinetypeTableRecord
  2
DASHED
 70
    0
  3
Dashed _ _ _ _ _ _ _ _ _ _ _ _ _ _ _ _ _
 72
   65
 73
    2
 40
19.05
 49
12.7
 74
    0
 49
-6.35
 74
    0
  0
LTYPE
  5
37
330
5
100
AcDbSymbolTableRecord
100
AcDbLinetypeTableRecord
  2
DASHEDTINY
 70
    0
  3
Dashed (.15x) _ _ _ _ _ _ _ _ _ _ _ _ _ _ _ _ _
 72
   65
 73
    2
 40
2.8575
 49
1.905
 74
    0
 49
-0.9525
 74
    0
  0
LTYPE
  5
38
330
5
100
AcDbSymbolTableRecord
100
AcDbLinetypeTableRecord
  2
DASHED2
 70
    0
  3
Dashed (.5x) _ _ _ _ _ _ _ _ _ _ _ _ _ _ _ _ _
 72
   65
 73
    2
 40
9.524999999999999
 49
6.35
 74
    0
 49
-3.175
 74
    0
  0
LTYPE
  5
39
330
5
100
AcDbSymbolTableRecord
100
AcDbLinetypeTableRecord
  2
DASHEDX2
 70
    0
  3
Dashed (2x) ____  ____  ____  ____  ____  ___
 72
   65
 73
    2
 40
38.09999999999999
 49
25.4
 74
    0
 49
-12.7
 74
    0
  0
LTYPE
  5
3A
330
5
100
AcDbSymbolTableRecord
100
AcDbLinetypeTableRecord
  2
DASHDOT
 70
    0
  3
Dash dot __ . __ . __ . __ . __ . __ . __ . __
 72
   65
 73
    4
 40
25.4
 49
12.7
 74
    0
 49
-6.35
 74
    0
 49
0
 74
    0
 49
-6.35
 74
    0
  0
LTYPE
  5
3B
330
5
100
AcDbSymbolTableRecord
100
AcDbLinetypeTableRecord
  2
DASHDOTTINY
 70
    0
  3
Dash dot (.15x) _._._._._._._._._._._._._._._.
 72
   65
 73
    4
 40
3.81
 49
1.905
 74
    0
 49
-0.9525
 74
    0
 49
0
 74
    0
 49
-0.9525
 74
    0
  0
LTYPE
  5
3C
330
5
100
AcDbSymbolTableRecord
100
AcDbLinetypeTableRecord
  2
DASHDOT2
 70
    0
  3
Dash dot (.5x) _._._._._._._._._._._._._._._.
 72
   65
 73
    4
 40
12.7
 49
6.35
 74
    0
 49
-3.175
 74
    0
 49
0
 74
    0
 49
-3.175
 74
    0
  0
LTYPE
  5
3D
330
5
100
AcDbSymbolTableRecord
100
AcDbLinetypeTableRecord
  2
DASHDOTX2
 70
    0
  3
Dash dot (2x) ____  .  ____  .  ____  .  ___
 72
   65
 73
    4
 40
50.8
 49
25.4
 74
    0
 49
-12.7
 74
    0
 49
0
 74
    0
 49
-12.7
 74
    0
  0
LTYPE
  5
3E
330
5
100
AcDbSymbolTableRecord
100
AcDbLinetypeTableRecord
  2
DIVIDE
 70
    0
  3
Divide ____ . . ____ . . ____ . . ____ . . ____
 72
   65
 73
    6
 40
31.75
 49
12.7
 74
    0
 49
-6.35
 74
    0
 49
0
 74
    0
 49
-6.35
 74
    0
 49
0
 74
    0
 49
-6.35
 74
    0
  0
LTYPE
  5
3F
330
5
100
AcDbSymbolTableRecord
100
AcDbLinetypeTableRecord
  2
DIVIDETINY
 70
    0
  3
Divide (.15x) __..__..__..__..__..__..__..__.._
 72
   65
 73
    6
 40
4.7625
 49
1.905
 74
    0
 49
-0.9525
 74
    0
 49
0
 74
    0
 49
-0.9525
 74
    0
 49
0
 74
    0
 49
-0.9525
 74
    0
  0
LTYPE
  5
40
330
5
100
AcDbSymbolTableRecord
100
AcDbLinetypeTableRecord
  2
DIVIDE2
 70
    0
  3
Divide (.5x) __..__..__..__..__..__..__..__.._
 72
   65
 73
    6
 40
15.875
 49
6.35
 74
    0
 49
-3.175
 74
    0
 49
0
 74
    0
 49
-3.175
 74
    0
 49
0
 74
    0
 49
-3.175
 74
    0
  0
LTYPE
  5
41
330
5
100
AcDbSymbolTableRecord
100
AcDbLinetypeTableRecord
  2
DIVIDEX2
 70
    0
  3
Divide (2x) ________  .  .  ________  .  .  _
 72
   65
 73
    6
 40
63.5
 49
25.4
 74
    0
 49
-12.7
 74
    0
 49
0
 74
    0
 49
-12.7
 74
    0
 49
0
 74
    0
 49
-12.7
 74
    0
  0
LTYPE
  5
42
330
5
100
AcDbSymbolTableRecord
100
AcDbLinetypeTableRecord
  2
BORDER
 70
    0
  3
Border __ __ . __ __ . __ __ . __ __ . __ __ .
 72
   65
 73
    6
 40
44.45
 49
12.7
 74
    0
 49
-6.35
 74
    0
 49
12.7
 74
    0
 49
-6.35
 74
    0
 49
0
 74
    0
 49
-6.35
 74
    0
  0
LTYPE
  5
43
330
5
100
AcDbSymbolTableRecord
100
AcDbLinetypeTableRecord
  2
BORDERTINY
 70
    0
  3
Border (.15x) __.__.__.__.__.__.__.__.__.__.__.
 72
   65
 73
    6
 40
6.6675
 49
1.905
 74
    0
 49
-0.9525
 74
    0
 49
1.905
 74
    0
 49
-0.9525
 74
    0
 49
0
 74
    0
 49
-0.9525
 74
    0
  0
LTYPE
  5
44
330
5
100
AcDbSymbolTableRecord
100
AcDbLinetypeTableRecord
  2
BORDER2
 70
    0
  3
Border (.5x) __.__.__.__.__.__.__.__.__.__.__.
 72
   65
 73
    6
 40
22.225
 49
6.35
 74
    0
 49
-3.175
 74
    0
 49
6.35
 74
    0
 49
-3.175
 74
    0
 49
0
 74
    0
 49
-3.175
 74
    0
  0
LTYPE
  5
45
330
5
100
AcDbSymbolTableRecord
100
AcDbLinetypeTableRecord
  2
BORDERX2
 70
    0
  3
Border (2x) ____  ____  .  ____  ____  .  ___
 72
   65
 73
    6
 40
88.89999999999999
 49
25.4
 74
    0
 49
-12.7
 74
    0
 49
25.4
 74
    0
 49
-12.7
 74
    0
 49
0
 74
    0
 49
-12.7
 74
    0
  0
LTYPE
  5
46
330
5
100
AcDbSymbolTableRecord
100
AcDbLinetypeTableRecord
  2
CENTER
 70
    0
  3
Center ____ _ ____ _ ____ _ ____ _ ____ _ ____
 72
   65
 73
    4
 40
50.8
 49
31.75
 74
    0
 49
-6.35
 74
    0
 49
6.35
 74
    0
 49
-6.35
 74
    0
  0
LTYPE
  5
47
330
5
100
AcDbSymbolTableRecord
100
AcDbLinetypeTableRecord
  2
CENTERTINY
 70
    0
  3
Center (.15x) ___ _ ___ _ ___ _ ___ _ ___ _ ___
 72
   65
 73
    4
 40
7.62
 49
4.7625
 74
    0
 49
-0.9525
 74
    0
 49
0.9525
 74
    0
 49
-0.9525
 74
    0
  0
LTYPE
  5
48
330
5
100
AcDbSymbolTableRecord
100
AcDbLinetypeTableRecord
  2
CENTER2
 70
    0
  3
Center (.5x) ___ _ ___ _ ___ _ ___ _ ___ _ ___
 72
   65
 73
    4
 40
28.575
 49
19.05
 74
    0
 49
-3.175
 74
    0
 49
3.175
 74
    0
 49
-3.175
 74
    0
  0
LTYPE
  5
49
330
5
100
AcDbSymbolTableRecord
100
AcDbLinetypeTableRecord
  2
CENTERX2
 70
    0
  3
Center (2x) ________  __  ________  __  _____
 72
   65
 73
    4
 40
101.6
 49
63.5
 74
    0
 49
-12.7
 74
    0
 49
12.7
 74
    0
 49
-12.7
 74
    0
  0
ENDTAB
  0
TABLE
  2
LAYER
  5
2
330
0
100
AcDbSymbolTable
 70
    1
  0
LAYER
  5
10
330
2
100
AcDbSymbolTableRecord
100
AcDbLayerTableRecord
  2
0
 70
    0
 62
    7
  6
CONTINUOUS
370
   -3
390
F
  0
LAYER
  5
4A
330
2
100
AcDbSymbolTableRecord
100
AcDbLayerTableRecord
  2
01_Axe
 70
    0
 62
    7
  6
CENTERTINY
370
   13
390
F
  0
LAYER
  5
4B
330
2
100
AcDbSymbolTableRecord
100
AcDbLayerTableRecord
  2
12_Trait fort Rouge
 70
    0
 62
    1
  6
CONTINUOUS
370
   70
390
F
  0
LAYER
  5
4C
330
2
100
AcDbSymbolTableRecord
100
AcDbLayerTableRecord
  2
2_Fin
 70
    0
 62
    7
  6
CONTINUOUS
370
   -3
390
F
  0
LAYER
  5
4D
330
2
100
AcDbSymbolTableRecord
100
AcDbLayerTableRecord
  2
3 construction
 70
    0
 62
    3
  6
CONTINUOUS
370
    0
390
F
1001
LibreCad
1070
    1
  0
LAYER
  5
4E
330
2
100
AcDbSymbolTableRecord
100
AcDbLayerTableRecord
  2
4_Traits forts
 70
    0
 62
    7
  6
CONTINUOUS
370
   40
390
F
  0
LAYER
  5
4F
330
2
100
AcDbSymbolTableRecord
100
AcDbLayerTableRecord
  2
5_Tiret fin
 70
    0
 62
    7
  6
DASHED2
370
   13
390
F
  0
LAYER
  5
50
330
2
100
AcDbSymbolTableRecord
100
AcDbLayerTableRecord
  2
5_Trait caché
 70
    0
 62
    7
  6
DASHEDTINY
370
   13
390
F
  0
LAYER
  5
51
330
2
100
AcDbSymbolTableRecord
100
AcDbLayerTableRecord
  2
Aide PériPhérique
 70
    0
 62
    7
  6
CONTINUOUS
370
   -3
390
F
  0
LAYER
  5
52
330
2
100
AcDbSymbolTableRecord
100
AcDbLayerTableRecord
  2
Cadre Extérieur
 70
    0
 62
    7
  6
CONTINUOUS
370
   -3
390
F
  0
LAYER
  5
53
330
2
100
AcDbSymbolTableRecord
100
AcDbLayerTableRecord
  2
Symbol ISO
 70
    0
 62
    7
  6
CONTINUOUS
370
   -3
390
F
  0
LAYER
  5
54
330
2
100
AcDbSymbolTableRecord
100
AcDbLayerTableRecord
  2
text
 70
    0
 62
    7
  6
CONTINUOUS
370
   -3
390
F
  0
ENDTAB
  0
TABLE
  2
STYLE
  5
3
330
0
100
AcDbSymbolTable
 70
    3
  0
STYLE
  5
55
330
2
100
AcDbSymbolTableRecord
100
AcDbTextStyleTableRecord
  2
romans
 70
    0
 40
0
 41
1
 50
0
 71
    0
 42
1
  3
romans
  4

  0
STYLE
  5
56
330
2
100
AcDbSymbolTableRecord
100
AcDbTextStyleTableRecord
  2
standard
 70
    0
 40
0
 41
1
 50
0
 71
    0
 42
1
  3
standard
  4

  0
STYLE
  5
57
330
2
100
AcDbSymbolTableRecord
100
AcDbTextStyleTableRecord
  2
iso
 70
    0
 40
0
 41
1
 50
0
 71
    0
 42
1
  3
iso
  4

  0
ENDTAB
  0
TABLE
  2
VIEW
  5
6
330
0
100
AcDbSymbolTable
 70
    0
  0
ENDTAB
  0
TABLE
  2
UCS
  5
7
330
0
100
AcDbSymbolTable
 70
    0
  0
ENDTAB
  0
TABLE
  2
APPID
  5
9
330
0
100
AcDbSymbolTable
 70
    1
  0
APPID
  5
12
330
9
100
AcDbSymbolTableRecord
100
AcDbRegAppTableRecord
  2
ACAD
 70
    0
  0
APPID
  5
58
330
9
100
AcDbSymbolTableRecord
100
AcDbRegAppTableRecord
  2
LibreCad
 70
    0
  0
ENDTAB
  0
TABLE
  2
DIMSTYLE
  5
A
330
0
100
AcDbSymbolTable
 70
    1
100
AcDbDimStyleTable
 71
    1
  0
DIMSTYLE
105
59
330
A
100
AcDbSymbolTableRecord
100
AcDbDimStyleTableRecord
  2
Standard
 70
    0
 40
2.5
 41
2.5
 42
0.625
 43
0.38
 44
1.25
 45
0
 46
0
 47
0
 48
0
 49
1
140
2.5
141
0.09
142
0
143
25.4
144
1
145
0
146
1
147
0.625
148
0
 71
    0
 72
    0
 73
    0
 74
    1
 75
    0
 76
    0
 77
    0
 78
    8
 79
    0
170
    0
171
    2
172
    0
173
    0
174
    0
175
    0
176
    0
177
    0
178
    0
179
    0
271
    2
272
    4
273
    2
274
    2
275
    0
276
    0
277
    2
278
   44
279
    0
280
    0
281
    0
282
    0
283
    1
284
    0
285
    0
286
    0
288
    0
289
    3
340
STANDARD
341

371
   -2
372
   -2
  0
ENDTAB
  0
TABLE
  2
BLOCK_RECORD
  5
1
330
0
100
AcDbSymbolTable
 70
    2
  0
BLOCK_RECORD
  5
1F
330
1
100
AcDbSymbolTableRecord
100
AcDbBlockTableRecord
  2
*Model_Space
 70
    0
280
    1
281
    0
  0
BLOCK_RECORD
  5
1E
330
1
100
AcDbSymbolTableRecord
100
AcDbBlockTableRecord
  2
*Paper_Space
 70
    0
280
    1
281
    0
  0
BLOCK_RECORD
  5
5A
330
1
100
AcDbSymbolTableRecord
100
AcDbBlockTableRecord
  2
k_Purg
 70
    0
280
    1
281
    0
  0
BLOCK_RECORD
  5
5D
330
1
100
AcDbSymbolTableRecord
100
AcDbBlockTableRecord
  2
b_Van
 70
    0
280
    1
281
    0
  0
BLOCK_RECORD
  5
60
330
1
100
AcDbSymbolTableRecord
100
AcDbBlockTableRecord
  2
b_Van-0
 70
    0
280
    1
281
    0
  0
BLOCK_RECORD
  5
63
330
1
100
AcDbSymbolTableRecord
100
AcDbBlockTableRecord
  2
b_Van-1
 70
    0
280
    1
281
    0
  0
BLOCK_RECORD
  5
66
330
1
100
AcDbSymbolTableRecord
100
AcDbBlockTableRecord
  2
f_VaseExp
 70
    0
280
    1
281
    0
  0
BLOCK_RECORD
  5
69
330
1
100
AcDbSymbolTableRecord
100
AcDbBlockTableRecord
  2
k_Purg-0
 70
    0
280
    1
281
    0
  0
BLOCK_RECORD
  5
6C
330
1
100
AcDbSymbolTableRecord
100
AcDbBlockTableRecord
  2
j_soupap
 70
    0
280
    1
281
    0
  0
BLOCK_RECORD
  5
6F
330
1
100
AcDbSymbolTableRecord
100
AcDbBlockTableRecord
  2
g_Mano
 70
    0
280
    1
281
    0
  0
BLOCK_RECORD
  5
72
330
1
100
AcDbSymbolTableRecord
100
AcDbBlockTableRecord
  2
e_Circul
 70
    0
280
    1
281
    0
  0
BLOCK_RECORD
  5
75
330
1
100
AcDbSymbolTableRecord
100
AcDbBlockTableRecord
  2
l_Tamis
 70
    0
280
    1
281
    0
  0
BLOCK_RECORD
  5
78
330
1
100
AcDbSymbolTableRecord
100
AcDbBlockTableRecord
  2
l_Tamis-0
 70
    0
280
    1
281
    0
  0
BLOCK_RECORD
  5
7B
330
1
100
AcDbSymbolTableRecord
100
AcDbBlockTableRecord
  2
l_Tamis-1
 70
    0
280
    1
281
    0
  0
BLOCK_RECORD
  5
7E
330
1
100
AcDbSymbolTableRecord
100
AcDbBlockTableRecord
  2
e_Circul-0
 70
    0
280
    1
281
    0
  0
BLOCK_RECORD
  5
81
330
1
100
AcDbSymbolTableRecord
100
AcDbBlockTableRecord
  2
i_Flèch
 70
    0
280
    1
281
    0
  0
BLOCK_RECORD
  5
84
330
1
100
AcDbSymbolTableRecord
100
AcDbBlockTableRecord
  2
i_Flèch-0
 70
    0
280
    1
281
    0
  0
BLOCK_RECORD
  5
87
330
1
100
AcDbSymbolTableRecord
100
AcDbBlockTableRecord
  2
e_Circul-1
 70
    0
280
    1
281
    0
  0
BLOCK_RECORD
  5
8A
330
1
100
AcDbSymbolTableRecord
100
AcDbBlockTableRecord
  2
b_Van-2
 70
    0
280
    1
281
    0
  0
BLOCK_RECORD
  5
8D
330
1
100
AcDbSymbolTableRecord
100
AcDbBlockTableRecord
  2
b_Van-3
 70
    0
280
    1
281
    0
  0
ENDTAB
  0
ENDSEC
  0
SECTION
  2
BLOCKS
  0
BLOCK
  5
20
330
1F
100
AcDbEntity
  8
0
100
AcDbBlockBegin
  2
*Model_Space
 70
    0
 10
0
 20
0
 30
0
  3
*Model_Space
  1

  0
ENDBLK
  5
21
330
1F
100
AcDbEntity
  8
0
100
AcDbBlockEnd
  0
BLOCK
  5
1C
330
1B
100
AcDbEntity
  8
0
100
AcDbBlockBegin
  2
*Paper_Space
 70
    0
 10
0
 20
0
 30
0
  3
*Paper_Space
  1

  0
ENDBLK
  5
1D
330
1F
100
AcDbEntity
  8
0
100
AcDbBlockEnd
  0
BLOCK
  5
5B
330
5A
100
AcDbEntity
  8
0
100
AcDbBlockBegin
  2
k_Purg
 70
    0
 10
0
 20
0
  3
k_Purg
  1

  0
LWPOLYLINE
  5
90
100
AcDbEntity
  8
0
  6
ByLayer
 62
  256
370
   35
100
AcDbPolyline
 90
    4
 70
    1
 43
0
 10
0
 20
1.444794600067752
 10
4.983761961236524
 20
6.360292205980272
 10
0.0682643553240041
 20
11.34405416721683
 10
-4.91549760591252
 20
6.428556561304305
  0
LINE
  5
91
100
AcDbEntity
  8
0
  6
ByLayer
 62
  256
370
   35
100
AcDbLine
 10
-1.661319978560357
 20
3.56277624530928
 11
0.03704579037741951
 21
1.864410476371503
  0
LINE
  5
92
100
AcDbEntity
  8
0
  6
ByLayer
 62
  256
370
   35
100
AcDbLine
 10
0.03704579037741951
 20
1.864410476371503
 11
1.70547271863316
 21
3.53283740462723
  0
LINE
  5
93
100
AcDbEntity
  8
0
  6
ByLayer
 62
  256
370
   35
100
AcDbLine
 10
1.70547271863316
 20
3.53283740462723
 11
-1.661963480937601
 21
3.53283740462723
  0
LINE
  5
94
100
AcDbEntity
  8
0
  6
ByLayer
 62
  256
370
   35
100
AcDbLine
 10
-2.389552861297915
 20
3.86753256258369
 11
2.437618132798804
 21
3.86753256258369
  0
LINE
  5
95
100
AcDbEntity
  8
0
  6
ByLayer
 62
  256
370
   35
100
AcDbLine
 10
0
 20
1.444794600067752
 11
0
 21
0
  0
LINE
  5
96
100
AcDbEntity
  8
0
  6
ByLayer
 62
  256
370
   35
100
AcDbLine
 10
0.0682643553240041
 20
11.34405416721683
 11
0.0682643553240041
 21
13.22569135967842
  0
ENDBLK
  5
5C
330
5A
100
AcDbEntity
  8
0
100
AcDbBlockEnd
  0
BLOCK
  5
5E
330
5D
100
AcDbEntity
  8
0
100
AcDbBlockBegin
  2
b_Van
 70
    0
 10
0
 20
0
  3
b_Van
  1

  0
LINE
  5
97
100
AcDbEntity
  8
0
  6
ByLayer
 62
  256
370
   35
100
AcDbLine
 10
-1.5
 20
2.529086297114588
 11
1.5
 21
2.529086297114588
  0
LINE
  5
98
100
AcDbEntity
  8
0
  6
ByLayer
 62
  256
370
   35
100
AcDbLine
 10
1.5
 20
2.529086297114588
 11
-1.5
 21
9.529086297114588
  0
LINE
  5
99
100
AcDbEntity
  8
0
  6
ByLayer
 62
  256
370
   35
100
AcDbLine
 10
-1.5
 20
9.529086297114588
 11
1.5
 21
9.529086297114588
  0
LINE
  5
9A
100
AcDbEntity
  8
0
  6
ByLayer
 62
  256
370
   35
100
AcDbLine
 10
1.5
 20
9.529086297114588
 11
-1.5
 21
2.529086297114588
  0
LINE
  5
9B
100
AcDbEntity
  8
0
  6
ByLayer
 62
  256
370
   35
100
AcDbLine
 10
0
 20
6.029086297114588
 11
-2.324665482084299
 21
6.029086297114588
  0
LINE
  5
9C
100
AcDbEntity
  8
0
  6
ByLayer
 62
  256
370
   35
100
AcDbLine
 10
-2.324665482084299
 20
6.029086297114588
 11
-2.324665482084299
 21
3.090802148756779
  0
LINE
  5
9D
100
AcDbEntity
  8
0
  6
ByLayer
 62
  256
370
   35
100
AcDbLine
 10
0
 20
2.529086297114588
 11
0
 21
0
  0
LINE
  5
9E
100
AcDbEntity
  8
0
  6
ByLayer
 62
  256
370
   35
100
AcDbLine
 10
0
 20
9.529086297114588
 11
0.01719098196974755
 21
12.03374580569562
  0
ENDBLK
  5
5F
330
5D
100
AcDbEntity
  8
0
100
AcDbBlockEnd
  0
BLOCK
  5
61
330
60
100
AcDbEntity
  8
0
100
AcDbBlockBegin
  2
b_Van-0
 70
    0
 10
0
 20
0
  3
b_Van-0
  1

  0
LINE
  5
9F
100
AcDbEntity
  8
0
  6
ByLayer
 62
  256
370
   35
100
AcDbLine
 10
-1.5
 20
2.529086297114588
 11
1.5
 21
2.529086297114588
  0
LINE
  5
A0
100
AcDbEntity
  8
0
  6
ByLayer
 62
  256
370
   35
100
AcDbLine
 10
1.5
 20
2.529086297114588
 11
-1.5
 21
9.529086297114588
  0
LINE
  5
A1
100
AcDbEntity
  8
0
  6
ByLayer
 62
  256
370
   35
100
AcDbLine
 10
-1.5
 20
9.529086297114588
 11
1.5
 21
9.529086297114588
  0
LINE
  5
A2
100
AcDbEntity
  8
0
  6
ByLayer
 62
  256
370
   35
100
AcDbLine
 10
1.5
 20
9.529086297114588
 11
-1.5
 21
2.529086297114588
  0
LINE
  5
A3
100
AcDbEntity
  8
0
  6
ByLayer
 62
  256
370
   35
100
AcDbLine
 10
0
 20
6.029086297114588
 11
-2.324665482084299
 21
6.029086297114588
  0
LINE
  5
A4
100
AcDbEntity
  8
0
  6
ByLayer
 62
  256
370
   35
100
AcDbLine
 10
-2.324665482084299
 20
6.029086297114588
 11
-2.324665482084299
 21
3.090802148756779
  0
LINE
  5
A5
100
AcDbEntity
  8
0
  6
ByLayer
 62
  256
370
   35
100
AcDbLine
 10
0
 20
2.529086297114588
 11
0
 21
0
  0
LINE
  5
A6
100
AcDbEntity
  8
0
  6
ByLayer
 62
  256
370
   35
100
AcDbLine
 10
0
 20
9.529086297114588
 11
0.01719098196974755
 21
12.03374580569562
  0
ENDBLK
  5
62
330
60
100
AcDbEntity
  8
0
100
AcDbBlockEnd
  0
BLOCK
  5
64
330
63
100
AcDbEntity
  8
0
100
AcDbBlockBegin
  2
b_Van-1
 70
    0
 10
0
 20
0
  3
b_Van-1
  1

  0
LINE
  5
A7
100
AcDbEntity
  8
0
  6
ByLayer
 62
  256
370
   35
100
AcDbLine
 10
-1.5
 20
2.529086297114588
 11
1.5
 21
2.529086297114588
  0
LINE
  5
A8
100
AcDbEntity
  8
0
  6
ByLayer
 62
  256
370
   35
100
AcDbLine
 10
1.5
 20
2.529086297114588
 11
-1.5
 21
9.529086297114588
  0
LINE
  5
A9
100
AcDbEntity
  8
0
  6
ByLayer
 62
  256
370
   35
100
AcDbLine
 10
-1.5
 20
9.529086297114588
 11
1.5
 21
9.529086297114588
  0
LINE
  5
AA
100
AcDbEntity
  8
0
  6
ByLayer
 62
  256
370
   35
100
AcDbLine
 10
1.5
 20
9.529086297114588
 11
-1.5
 21
2.529086297114588
  0
LINE
  5
AB
100
AcDbEntity
  8
0
  6
ByLayer
 62
  256
370
   35
100
AcDbLine
 10
0
 20
6.029086297114588
 11
-2.324665482084299
 21
6.029086297114588
  0
LINE
  5
AC
100
AcDbEntity
  8
0
  6
ByLayer
 62
  256
370
   35
100
AcDbLine
 10
-2.324665482084299
 20
6.029086297114588
 11
-2.324665482084299
 21
3.090802148756779
  0
LINE
  5
AD
100
AcDbEntity
  8
0
  6
ByLayer
 62
  256
370
   35
100
AcDbLine
 10
0
 20
2.529086297114588
 11
0
 21
0
  0
LINE
  5
AE
100
AcDbEntity
  8
0
  6
ByLayer
 62
  256
370
   35
100
AcDbLine
 10
0
 20
9.529086297114588
 11
0.01719098196974755
 21
12.03374580569562
  0
ENDBLK
  5
65
330
63
100
AcDbEntity
  8
0
100
AcDbBlockEnd
  0
BLOCK
  5
67
330
66
100
AcDbEntity
  8
0
100
AcDbBlockBegin
  2
f_VaseExp
 70
    0
 10
0
 20
0
  3
f_VaseExp
  1

  0
LINE
  5
AF
100
AcDbEntity
  8
0
  6
ByLayer
 62
  256
370
   35
100
AcDbLine
 10
6
 20
16.58857603112247
 11
6
 21
9.588576031122471
  0
LINE
  5
B0
100
AcDbEntity
  8
0
  6
ByLayer
 62
  256
370
   35
100
AcDbLine
 10
-6
 20
9.588576031122471
 11
-6
 21
16.58857603112247
  0
ARC
  5
B1
100
AcDbEntity
  8
0
  6
ByLayer
 62
  256
370
   35
100
AcDbCircle
 10
0
 20
16.58857603112247
 40
6
100
AcDbArc
 50
0
 51
180
  0
ARC
  5
B2
100
AcDbEntity
  8
0
  6
ByLayer
 62
  256
370
   35
100
AcDbCircle
 10
0
 20
9.588576031122471
 40
6
100
AcDbArc
 50
180
 51
0
  0
LINE
  5
B3
100
AcDbEntity
  8
0
  6
ByLayer
 62
  256
370
   35
100
AcDbLine
 10
-6
 20
13.64041873807801
 11
6.005511604116407
 21
13.64041873807801
  0
LINE
  5
B4
100
AcDbEntity
  8
0
  6
ByLayer
 62
  256
370
   35
100
AcDbLine
 10
-6
 20
12.27638296991964
 11
6.041618906072699
 21
12.27638296991964
  0
LINE
  5
B5
100
AcDbEntity
  8
0
  6
ByLayer
 62
  256
370
   35
100
AcDbLine
 10
0.07042539266424797
 20
22.58816270555832
 11
0.09778691694998543
 21
22.58816270555832
  0
LINE
  5
B6
100
AcDbEntity
  8
0
  6
ByLayer
 62
  256
370
   35
100
AcDbLine
 10
0.09778691694998543
 20
22.58816270555832
 11
0.09778691694998543
 21
26.2926989021708
  0
LINE
  5
B7
100
AcDbEntity
  8
0
  6
ByLayer
 62
  256
370
   35
100
AcDbLine
 10
0
 20
3.588576031122471
 11
0
 21
0
  0
ENDBLK
  5
68
330
66
100
AcDbEntity
  8
0
100
AcDbBlockEnd
  0
BLOCK
  5
6A
330
69
100
AcDbEntity
  8
0
100
AcDbBlockBegin
  2
k_Purg-0
 70
    0
 10
0
 20
0
  3
k_Purg-0
  1

  0
LWPOLYLINE
  5
B8
100
AcDbEntity
  8
0
  6
ByLayer
 62
  256
370
   35
100
AcDbPolyline
 90
    4
 70
    1
 43
0
 10
0
 20
1.444794600067752
 10
4.983761961236524
 20
6.360292205980272
 10
0.0682643553240041
 20
11.34405416721683
 10
-4.91549760591252
 20
6.428556561304305
  0
LINE
  5
B9
100
AcDbEntity
  8
0
  6
ByLayer
 62
  256
370
   35
100
AcDbLine
 10
-1.661319978560357
 20
3.56277624530928
 11
0.03704579037741951
 21
1.864410476371503
  0
LINE
  5
BA
100
AcDbEntity
  8
0
  6
ByLayer
 62
  256
370
   35
100
AcDbLine
 10
0.03704579037741951
 20
1.864410476371503
 11
1.70547271863316
 21
3.53283740462723
  0
LINE
  5
BB
100
AcDbEntity
  8
0
  6
ByLayer
 62
  256
370
   35
100
AcDbLine
 10
1.70547271863316
 20
3.53283740462723
 11
-1.661963480937601
 21
3.53283740462723
  0
LINE
  5
BC
100
AcDbEntity
  8
0
  6
ByLayer
 62
  256
370
   35
100
AcDbLine
 10
-2.389552861297915
 20
3.86753256258369
 11
2.437618132798804
 21
3.86753256258369
  0
LINE
  5
BD
100
AcDbEntity
  8
0
  6
ByLayer
 62
  256
370
   35
100
AcDbLine
 10
0
 20
1.444794600067752
 11
0
 21
0
  0
LINE
  5
BE
100
AcDbEntity
  8
0
  6
ByLayer
 62
  256
370
   35
100
AcDbLine
 10
0.0682643553240041
 20
11.34405416721683
 11
0.0682643553240041
 21
13.22569135967842
  0
ENDBLK
  5
6B
330
69
100
AcDbEntity
  8
0
100
AcDbBlockEnd
  0
BLOCK
  5
6D
330
6C
100
AcDbEntity
  8
0
100
AcDbBlockBegin
  2
j_soupap
 70
    0
 10
0
 20
0
  3
j_soupap
  1

  0
LINE
  5
BF
100
AcDbEntity
  8
0
  6
ByLayer
 62
  256
370
   35
100
AcDbLine
 10
-1.460093701486016
 20
1.787563761366101
 11
1.539906298513984
 21
1.787563761366101
  0
LINE
  5
C0
100
AcDbEntity
  8
0
  6
ByLayer
 62
  256
370
   35
100
AcDbLine
 10
1.539906298513984
 20
1.787563761366101
 11
0.04608837879797534
 21
4.839279773785762
  0
LINE
  5
C1
100
AcDbEntity
  8
0
  6
ByLayer
 62
  256
370
   35
100
AcDbLine
 10
0.04608837879797534
 20
4.839279773785762
 11
-1.460093701486016
 21
1.787563761366101
  0
LINE
  5
C2
100
AcDbEntity
  8
0
  6
ByLayer
 62
  256
370
   35
100
AcDbLine
 10
3.064812471162554
 20
3.313432365572311
 11
3.0384967341964
 21
6.313316943683276
  0
LINE
  5
C3
100
AcDbEntity
  8
0
  6
ByLayer
 62
  256
370
   35
100
AcDbLine
 10
3.0384967341964
 20
6.313316943683276
 11
1.773202598087664e-006
 21
4.792787111769925
  0
LINE
  5
C4
100
AcDbEntity
  8
0
  6
ByLayer
 62
  256
370
   35
100
AcDbLine
 10
1.773202598087664e-006
 20
4.792787111769925
 11
3.064812471162554
 21
3.313432365572311
  0
LINE
  5
C5
100
AcDbEntity
  8
0
  6
ByLayer
 62
  256
370
   35
100
AcDbLine
 10
0.03990629851398353
 20
1.787563761366101
 11
0.03990629851398353
 21
0.2756264595913791
  0
LINE
  5
C6
100
AcDbEntity
  8
0
  6
ByLayer
 62
  256
370
   35
100
AcDbLine
 10
3.051654602679491
 20
4.813374654627793
 11
5.121882510607293
 21
4.813374654627793
  0
LINE
  5
C7
100
AcDbEntity
  8
0
  6
ByLayer
 62
  256
370
   35
100
AcDbLine
 10
0.04608837879800376
 20
4.839279773785762
 11
0
 21
5.853224107340878
  0
LINE
  5
C8
100
AcDbEntity
  8
0
  6
ByLayer
 62
  256
370
   35
100
AcDbLine
 10
0
 20
5.853224107340878
 11
-0.7835024395652965
 21
6.68281492570415
  0
LINE
  5
C9
100
AcDbEntity
  8
0
  6
ByLayer
 62
  256
370
   35
100
AcDbLine
 10
-0.7835024395652965
 20
6.68281492570415
 11
0.5991489243734804
 21
6.959345198491917
  0
LINE
  5
CA
100
AcDbEntity
  8
0
  6
ByLayer
 62
  256
370
   35
100
AcDbLine
 10
0.5991489243734804
 20
6.959345198491917
 11
-0.6452373031714274
 21
7.65067088046132
  0
LINE
  5
CB
100
AcDbEntity
  8
0
  6
ByLayer
 62
  256
370
   35
100
AcDbLine
 10
-0.6452373031714274
 20
7.65067088046132
 11
0
 21
7.881112774451111
  0
LINE
  5
CC
100
AcDbEntity
  8
0
  6
ByLayer
 62
  256
370
   35
100
AcDbLine
 10
0
 20
7.881112774451111
 11
0.04608837879797534
 21
8.848968729208252
  0
ENDBLK
  5
6E
330
6C
100
AcDbEntity
  8
0
100
AcDbBlockEnd
  0
BLOCK
  5
70
330
6F
100
AcDbEntity
  8
0
100
AcDbBlockBegin
  2
g_Mano
 70
    0
 10
0
 20
0
  3
g_Mano
  1

  0
CIRCLE
  5
CD
100
AcDbEntity
  8
0
  6
ByLayer
 62
  256
370
   35
100
AcDbCircle
 10
0.02412258671523659
 20
5.520968922290734
 40
3.575886444251155
  0
LINE
  5
CE
100
AcDbEntity
  8
0
  6
ByLayer
 62
  256
370
   35
100
AcDbLine
 10
2.231192239532476
 20
3.853877504647016
 11
1.866088054881715
 21
3.468489754182315
  0
LINE
  5
CF
100
AcDbEntity
  8
0
  6
ByLayer
 62
  256
370
   35
100
AcDbLine
 10
1.866088054881715
 20
3.468489754182315
 11
-1.156163251394105
 21
6.227054704877048
  0
LINE
  5
D0
100
AcDbEntity
  8
0
  6
ByLayer
 62
  256
370
   35
100
AcDbLine
 10
-1.156163251394105
 20
6.227054704877048
 11
-1.399566041161307
 21
6.003935480923786
  0
LINE
  5
D1
100
AcDbEntity
  8
0
  6
ByLayer
 62
  256
370
   35
100
AcDbLine
 10
-1.399566041161307
 20
6.003935480923786
 11
-1.724103094184215
 21
7.160098732317891
  0
LINE
  5
D2
100
AcDbEntity
  8
0
  6
ByLayer
 62
  256
370
   35
100
AcDbLine
 10
-1.724103094184215
 20
7.160098732317891
 11
-0.5273727111622293
 21
6.835561679294983
  0
LINE
  5
D3
100
AcDbEntity
  8
0
  6
ByLayer
 62
  256
370
   35
100
AcDbLine
 10
-0.5273727111622293
 20
6.835561679294983
 11
-0.6896412376736976
 21
6.61244245534175
  0
LINE
  5
D4
100
AcDbEntity
  8
0
  6
ByLayer
 62
  256
370
   35
100
AcDbLine
 10
-0.6896412376736976
 20
6.61244245534175
 11
2.271759371160357
 21
3.91472820208881
  0
LINE
  5
D5
100
AcDbEntity
  8
0
  6
ByLayer
 62
  256
370
   35
100
AcDbLine
 10
0.004542328347127977
 20
1.945136085641138
 11
0.004542328347127977
 21
0.02021920181414316
  0
ENDBLK
  5
71
330
6F
100
AcDbEntity
  8
0
100
AcDbBlockEnd
  0
BLOCK
  5
73
330
72
100
AcDbEntity
  8
0
100
AcDbBlockBegin
  2
e_Circul
 70
    0
 10
0
 20
0
  3
e_Circul
  1

  0
CIRCLE
  5
D6
100
AcDbEntity
  8
0
  6
ByLayer
 62
  256
370
   -1
100
AcDbCircle
 10
-7
 20
0
 40
5
  0
LINE
  5
D7
100
AcDbEntity
  8
0
  6
ByLayer
 62
  256
370
   -1
100
AcDbLine
 10
-2
 20
0
 11
-9.5
 21
4.330127018922198
  0
LINE
  5
D8
100
AcDbEntity
  8
0
  6
ByLayer
 62
  256
370
   -1
100
AcDbLine
 10
-9.5
 20
4.330127018922198
 11
-9.5
 21
-4.330127018922198
  0
LINE
  5
D9
100
AcDbEntity
  8
0
  6
ByLayer
 62
  256
370
   -1
100
AcDbLine
 10
-9.5
 20
-4.330127018922198
 11
-2
 21
0
  0
LINE
  5
DA
100
AcDbEntity
  8
0
  6
ByLayer
 62
  256
370
   -1
100
AcDbLine
 10
-12
 20
0
 11
-14
 21
0
  0
LINE
  5
DB
100
AcDbEntity
  8
0
  6
ByLayer
 62
  256
370
   -1
100
AcDbLine
 10
-2
 20
0
 11
0
 21
0
  0
ENDBLK
  5
74
330
72
100
AcDbEntity
  8
0
100
AcDbBlockEnd
  0
BLOCK
  5
76
330
75
100
AcDbEntity
  8
0
100
AcDbBlockBegin
  2
l_Tamis
 70
    0
 10
0
 20
0
  3
l_Tamis
  1

  0
LWPOLYLINE
  5
DC
100
AcDbEntity
  8
0
  6
ByLayer
 62
  256
370
   -1
100
AcDbPolyline
 90
    4
 70
    1
 43
0
 10
-12.07004480142305
 20
-1.011109349089722
 10
-2.070044801423052
 20
-1.011109349089722
 10
-2.070044801423052
 20
0.9888906509102782
 10
-12.07004480142305
 20
0.9888906509102782
  0
LINE
  5
DD
100
AcDbEntity
  8
0
  6
ByLayer
 62
  256
370
   -1
100
AcDbLine
 10
-9.888392460103432
 20
-1.036160454829101
 11
-11.54956036841551
 21
-2.411028151060336
  0
LINE
  5
DE
100
AcDbEntity
  8
0
  6
ByLayer
 62
  256
370
   -1
100
AcDbLine
 10
-11.54956036841551
 20
-2.411028151060336
 11
-10.25927595845457
 21
-3.939278721440317
  0
LINE
  5
DF
100
AcDbEntity
  8
0
  6
ByLayer
 62
  256
370
   -1
100
AcDbLine
 10
-10.25927595845457
 20
-3.939278721440317
 11
-6.746076796003649
 21
-1.031575042172705
  0
LINE
  5
E0
100
AcDbEntity
  8
0
  6
ByLayer
 62
  256
370
   -1
100
AcDbLine
 10
-12.07004480142305
 20
-0.01110934908972183
 11
-14.70590754260601
 21
-0.01110934908972183
  0
LINE
  5
E1
100
AcDbEntity
  8
0
  6
ByLayer
 62
  256
370
   -1
100
AcDbLine
 10
-2.070044801423052
 20
-0.01110934908972183
 11
-0.01749069790366775
 21
-0.01110934908972183
  0
ENDBLK
  5
77
330
75
100
AcDbEntity
  8
0
100
AcDbBlockEnd
  0
BLOCK
  5
79
330
78
100
AcDbEntity
  8
0
100
AcDbBlockBegin
  2
l_Tamis-0
 70
    0
 10
0
 20
0
  3
l_Tamis-0
  1

  0
LWPOLYLINE
  5
E2
100
AcDbEntity
  8
0
  6
ByLayer
 62
  256
370
   -1
100
AcDbPolyline
 90
    4
 70
    1
 43
0
 10
-12.07004480142305
 20
-1.011109349089722
 10
-2.070044801423052
 20
-1.011109349089722
 10
-2.070044801423052
 20
0.9888906509102782
 10
-12.07004480142305
 20
0.9888906509102782
  0
LINE
  5
E3
100
AcDbEntity
  8
0
  6
ByLayer
 62
  256
370
   -1
100
AcDbLine
 10
-9.888392460103432
 20
-1.036160454829101
 11
-11.54956036841551
 21
-2.411028151060336
  0
LINE
  5
E4
100
AcDbEntity
  8
0
  6
ByLayer
 62
  256
370
   -1
100
AcDbLine
 10
-11.54956036841551
 20
-2.411028151060336
 11
-10.25927595845457
 21
-3.939278721440317
  0
LINE
  5
E5
100
AcDbEntity
  8
0
  6
ByLayer
 62
  256
370
   -1
100
AcDbLine
 10
-10.25927595845457
 20
-3.939278721440317
 11
-6.746076796003649
 21
-1.031575042172705
  0
LINE
  5
E6
100
AcDbEntity
  8
0
  6
ByLayer
 62
  256
370
   -1
100
AcDbLine
 10
-12.07004480142305
 20
-0.01110934908972183
 11
-14.70590754260601
 21
-0.01110934908972183
  0
LINE
  5
E7
100
AcDbEntity
  8
0
  6
ByLayer
 62
  256
370
   -1
100
AcDbLine
 10
-2.070044801423052
 20
-0.01110934908972183
 11
-0.01749069790366775
 21
-0.01110934908972183
  0
ENDBLK
  5
7A
330
78
100
AcDbEntity
  8
0
100
AcDbBlockEnd
  0
BLOCK
  5
7C
330
7B
100
AcDbEntity
  8
0
100
AcDbBlockBegin
  2
l_Tamis-1
 70
    0
 10
0
 20
0
  3
l_Tamis-1
  1

  0
LWPOLYLINE
  5
E8
100
AcDbEntity
  8
0
  6
ByLayer
 62
  256
370
   35
100
AcDbPolyline
 90
    4
 70
    1
 43
0
 10
-12.07004480142305
 20
-1.011109349089722
 10
-2.070044801423052
 20
-1.011109349089722
 10
-2.070044801423052
 20
0.9888906509102782
 10
-12.07004480142305
 20
0.9888906509102782
  0
LINE
  5
E9
100
AcDbEntity
  8
0
  6
ByLayer
 62
  256
370
   35
100
AcDbLine
 10
-9.888392460103432
 20
-1.036160454829101
 11
-11.54956036841551
 21
-2.411028151060336
  0
LINE
  5
EA
100
AcDbEntity
  8
0
  6
ByLayer
 62
  256
370
   35
100
AcDbLine
 10
-11.54956036841551
 20
-2.411028151060336
 11
-10.25927595845457
 21
-3.939278721440317
  0
LINE
  5
EB
100
AcDbEntity
  8
0
  6
ByLayer
 62
  256
370
   35
100
AcDbLine
 10
-10.25927595845457
 20
-3.939278721440317
 11
-6.746076796003649
 21
-1.031575042172705
  0
LINE
  5
EC
100
AcDbEntity
  8
0
  6
ByLayer
 62
  256
370
   35
100
AcDbLine
 10
-12.07004480142305
 20
-0.01110934908972183
 11
-14.70590754260601
 21
-0.01110934908972183
  0
LINE
  5
ED
100
AcDbEntity
  8
0
  6
ByLayer
 62
  256
370
   35
100
AcDbLine
 10
-2.070044801423052
 20
-0.01110934908972183
 11
-0.01749069790366775
 21
-0.01110934908972183
  0
ENDBLK
  5
7D
330
7B
100
AcDbEntity
  8
0
100
AcDbBlockEnd
  0
BLOCK
  5
7F
330
7E
100
AcDbEntity
  8
0
100
AcDbBlockBegin
  2
e_Circul-0
 70
    0
 10
0
 20
0
  3
e_Circul-0
  1

  0
CIRCLE
  5
EE
100
AcDbEntity
  8
0
  6
ByLayer
 62
  256
370
   35
100
AcDbCircle
 10
-7
 20
0
 40
5
  0
LINE
  5
EF
100
AcDbEntity
  8
0
  6
ByLayer
 62
  256
370
   35
100
AcDbLine
 10
-2
 20
0
 11
-9.5
 21
4.330127018922198
  0
LINE
  5
F0
100
AcDbEntity
  8
0
  6
ByLayer
 62
  256
370
   35
100
AcDbLine
 10
-9.5
 20
4.330127018922198
 11
-9.5
 21
-4.330127018922198
  0
LINE
  5
F1
100
AcDbEntity
  8
0
  6
ByLayer
 62
  256
370
   35
100
AcDbLine
 10
-9.5
 20
-4.330127018922198
 11
-2
 21
0
  0
LINE
  5
F2
100
AcDbEntity
  8
0
  6
ByLayer
 62
  256
370
   35
100
AcDbLine
 10
-12
 20
0
 11
-14
 21
0
  0
LINE
  5
F3
100
AcDbEntity
  8
0
  6
ByLayer
 62
  256
370
   35
100
AcDbLine
 10
-2
 20
0
 11
0
 21
0
  0
ENDBLK
  5
80
330
7E
100
AcDbEntity
  8
0
100
AcDbBlockEnd
  0
BLOCK
  5
82
330
81
100
AcDbEntity
  8
0
100
AcDbBlockBegin
  2
i_Flèch
 70
    0
 10
0
 20
0
  3
i_Flèch
  1

  0
LINE
  5
F4
100
AcDbEntity
  8
0
  6
ByLayer
 62
  256
370
   35
100
AcDbLine
 10
-9.809741627855459
 20
-0.7727208453742946
 11
-2.78157520881382
 21
-0.7727208453742946
  0
LINE
  5
F5
100
AcDbEntity
  8
0
  6
ByLayer
 62
  256
370
   35
100
AcDbLine
 10
-2.78157520881382
 20
-0.7727208453742946
 11
-2.78157520881382
 21
-1.479679564782145
  0
LINE
  5
F6
100
AcDbEntity
  8
0
  6
ByLayer
 62
  256
370
   35
100
AcDbLine
 10
-2.78157520881382
 20
-1.479679564782145
 11
-0.1676073398099334
 21
0.02949548804028268
  0
LINE
  5
F7
100
AcDbEntity
  8
0
  6
ByLayer
 62
  256
370
   35
100
AcDbLine
 10
-9.809741627855459
 20
0.7727208453742946
 11
-2.78157520881382
 21
0.7727208453742946
  0
LINE
  5
F8
100
AcDbEntity
  8
0
  6
ByLayer
 62
  256
370
   35
100
AcDbLine
 10
-2.78157520881382
 20
0.7727208453742946
 11
-2.78157520881382
 21
1.479679564782145
  0
LINE
  5
F9
100
AcDbEntity
  8
0
  6
ByLayer
 62
  256
370
   35
100
AcDbLine
 10
-2.78157520881382
 20
1.479679564782145
 11
-0.1676073398099334
 21
-0.02949548804028268
  0
LINE
  5
FA
100
AcDbEntity
  8
0
  6
ByLayer
 62
  256
370
   35
100
AcDbLine
 10
-9.809741627855459
 20
0.7727208453742946
 11
-9.809741627855459
 21
-0.7727208453742946
  0
LINE
  5
FB
100
AcDbEntity
  8
0
  6
ByLayer
 62
  256
370
   35
100
AcDbLine
 10
-0.1676073398099334
 20
-0.02949548804028268
 11
-9.884304624401068
 21
-0.02949548804028268
  0
ENDBLK
  5
83
330
81
100
AcDbEntity
  8
0
100
AcDbBlockEnd
  0
BLOCK
  5
85
330
84
100
AcDbEntity
  8
0
100
AcDbBlockBegin
  2
i_Flèch-0
 70
    0
 10
0
 20
0
  3
i_Flèch-0
  1

  0
LINE
  5
FC
100
AcDbEntity
  8
0
  6
ByLayer
 62
  256
370
   35
100
AcDbLine
 10
-9.809741627855459
 20
-0.7727208453742946
 11
-2.78157520881382
 21
-0.7727208453742946
  0
LINE
  5
FD
100
AcDbEntity
  8
0
  6
ByLayer
 62
  256
370
   35
100
AcDbLine
 10
-2.78157520881382
 20
-0.7727208453742946
 11
-2.78157520881382
 21
-1.479679564782145
  0
LINE
  5
FE
100
AcDbEntity
  8
0
  6
ByLayer
 62
  256
370
   35
100
AcDbLine
 10
-2.78157520881382
 20
-1.479679564782145
 11
-0.1676073398099334
 21
0.02949548804028268
  0
LINE
  5
FF
100
AcDbEntity
  8
0
  6
ByLayer
 62
  256
370
   35
100
AcDbLine
 10
-9.809741627855459
 20
0.7727208453742946
 11
-2.78157520881382
 21
0.7727208453742946
  0
LINE
  5
100
100
AcDbEntity
  8
0
  6
ByLayer
 62
  256
370
   35
100
AcDbLine
 10
-2.78157520881382
 20
0.7727208453742946
 11
-2.78157520881382
 21
1.479679564782145
  0
LINE
  5
101
100
AcDbEntity
  8
0
  6
ByLayer
 62
  256
370
   35
100
AcDbLine
 10
-2.78157520881382
 20
1.479679564782145
 11
-0.1676073398099334
 21
-0.02949548804028268
  0
LINE
  5
102
100
AcDbEntity
  8
0
  6
ByLayer
 62
  256
370
   35
100
AcDbLine
 10
-9.809741627855459
 20
0.7727208453742946
 11
-9.809741627855459
 21
-0.7727208453742946
  0
LINE
  5
103
100
AcDbEntity
  8
0
  6
ByLayer
 62
  256
370
   35
100
AcDbLine
 10
-0.1676073398099334
 20
-0.02949548804028268
 11
-9.884304624401068
 21
-0.02949548804028268
  0
ENDBLK
  5
86
330
84
100
AcDbEntity
  8
0
100
AcDbBlockEnd
  0
BLOCK
  5
88
330
87
100
AcDbEntity
  8
0
100
AcDbBlockBegin
  2
e_Circul-1
 70
    0
 10
0
 20
0
  3
e_Circul-1
  1

  0
CIRCLE
  5
104
100
AcDbEntity
  8
0
  6
ByLayer
 62
  256
370
   35
100
AcDbCircle
 10
-7
 20
0
 40
5
  0
LINE
  5
105
100
AcDbEntity
  8
0
  6
ByLayer
 62
  256
370
   35
100
AcDbLine
 10
-2
 20
0
 11
-9.5
 21
4.330127018922198
  0
LINE
  5
106
100
AcDbEntity
  8
0
  6
ByLayer
 62
  256
370
   35
100
AcDbLine
 10
-9.5
 20
4.330127018922198
 11
-9.5
 21
-4.330127018922198
  0
LINE
  5
107
100
AcDbEntity
  8
0
  6
ByLayer
 62
  256
370
   35
100
AcDbLine
 10
-9.5
 20
-4.330127018922198
 11
-2
 21
0
  0
LINE
  5
108
100
AcDbEntity
  8
0
  6
ByLayer
 62
  256
370
   35
100
AcDbLine
 10
-12
 20
0
 11
-14
 21
0
  0
LINE
  5
109
100
AcDbEntity
  8
0
  6
ByLayer
 62
  256
370
   35
100
AcDbLine
 10
-2
 20
0
 11
0
 21
0
  0
ENDBLK
  5
89
330
87
100
AcDbEntity
  8
0
100
AcDbBlockEnd
  0
BLOCK
  5
8B
330
8A
100
AcDbEntity
  8
0
100
AcDbBlockBegin
  2
b_Van-2
 70
    0
 10
0
 20
0
  3
b_Van-2
  1

  0
LINE
  5
10A
100
AcDbEntity
  8
0
  6
ByLayer
 62
  256
370
   35
100
AcDbLine
 10
-1.5
 20
2.529086297114588
 11
1.5
 21
2.529086297114588
  0
LINE
  5
10B
100
AcDbEntity
  8
0
  6
ByLayer
 62
  256
370
   35
100
AcDbLine
 10
1.5
 20
2.529086297114588
 11
-1.5
 21
9.529086297114588
  0
LINE
  5
10C
100
AcDbEntity
  8
0
  6
ByLayer
 62
  256
370
   35
100
AcDbLine
 10
-1.5
 20
9.529086297114588
 11
1.5
 21
9.529086297114588
  0
LINE
  5
10D
100
AcDbEntity
  8
0
  6
ByLayer
 62
  256
370
   35
100
AcDbLine
 10
1.5
 20
9.529086297114588
 11
-1.5
 21
2.529086297114588
  0
LINE
  5
10E
100
AcDbEntity
  8
0
  6
ByLayer
 62
  256
370
   35
100
AcDbLine
 10
0
 20
6.029086297114588
 11
-2.324665482084299
 21
6.029086297114588
  0
LINE
  5
10F
100
AcDbEntity
  8
0
  6
ByLayer
 62
  256
370
   35
100
AcDbLine
 10
-2.324665482084299
 20
6.029086297114588
 11
-2.324665482084299
 21
3.090802148756779
  0
LINE
  5
110
100
AcDbEntity
  8
0
  6
ByLayer
 62
  256
370
   35
100
AcDbLine
 10
0
 20
2.529086297114588
 11
0
 21
0
  0
LINE
  5
111
100
AcDbEntity
  8
0
  6
ByLayer
 62
  256
370
   35
100
AcDbLine
 10
0
 20
9.529086297114588
 11
0.01719098196974755
 21
12.03374580569562
  0
ENDBLK
  5
8C
330
8A
100
AcDbEntity
  8
0
100
AcDbBlockEnd
  0
BLOCK
  5
8E
330
8D
100
AcDbEntity
  8
0
100
AcDbBlockBegin
  2
b_Van-3
 70
    0
 10
0
 20
0
  3
b_Van-3
  1

  0
LINE
  5
112
100
AcDbEntity
  8
0
  6
ByLayer
 62
  256
370
   35
100
AcDbLine
 10
-1.5
 20
2.529086297114588
 11
1.5
 21
2.529086297114588
  0
LINE
  5
113
100
AcDbEntity
  8
0
  6
ByLayer
 62
  256
370
   35
100
AcDbLine
 10
1.5
 20
2.529086297114588
 11
-1.5
 21
9.529086297114588
  0
LINE
  5
114
100
AcDbEntity
  8
0
  6
ByLayer
 62
  256
370
   35
100
AcDbLine
 10
-1.5
 20
9.529086297114588
 11
1.5
 21
9.529086297114588
  0
LINE
  5
115
100
AcDbEntity
  8
0
  6
ByLayer
 62
  256
370
   35
100
AcDbLine
 10
1.5
 20
9.529086297114588
 11
-1.5
 21
2.529086297114588
  0
LINE
  5
116
100
AcDbEntity
  8
0
  6
ByLayer
 62
  256
370
   35
100
AcDbLine
 10
0
 20
6.029086297114588
 11
-2.324665482084299
 21
6.029086297114588
  0
LINE
  5
117
100
AcDbEntity
  8
0
  6
ByLayer
 62
  256
370
   35
100
AcDbLine
 10
-2.324665482084299
 20
6.029086297114588
 11
-2.324665482084299
 21
3.090802148756779
  0
LINE
  5
118
100
AcDbEntity
  8
0
  6
ByLayer
 62
  256
370
   35
100
AcDbLine
 10
0
 20
2.529086297114588
 11
0
 21
0
  0
LINE
  5
119
100
AcDbEntity
  8
0
  6
ByLayer
 62
  256
370
   35
100
AcDbLine
 10
0
 20
9.529086297114588
 11
0.01719098196974755
 21
12.03374580569562
  0
ENDBLK
  5
8F
330
8D
100
AcDbEntity
  8
0
100
AcDbBlockEnd
  0
ENDSEC
  0
SECTION
  2
ENTITIES
  0
LWPOLYLINE
  5
11A
100
AcDbEntity
  8
0
  6
ByLayer
 62
  256
370
   -1
100
AcDbPolyline
 90
    4
 70
    1
 43
0
 10
0
 20
0.9027355623100314
 10
420
 20
0.9027355623100314
 10
420
 20
297.9027355623101
 10
0
 20
297.9027355623101
  0
MTEXT
  5
11B
100
AcDbEntity
  8
2_Fin
  6
ByLayer
 62
  256
370
   -1
100
AcDbMText
 10
52.57116788321171
 20
161.7631048950951
 30
0
 40
1
 41
0
 71
    1
 72
    1
  1

  7
standard
210
0
220
0
230
1
 50
0
 73
    2
 44
1
  0
CIRCLE
  5
11C
100
AcDbEntity
  8
Aide PériPhérique
  6
ByLayer
 62
  256
370
   -1
100
AcDbCircle
 10
15.00000000000002
 20
223.6527355623101
 40
3
  0
LINE
  5
11D
100
AcDbEntity
  8
Aide PériPhérique
  6
ByLayer
 62
  256
370
   -1
100
AcDbLine
 10
19.99999999999989
 20
149.40273556231
 11
15.66987298107769
 21
146.90273556231
  0
LINE
  5
11E
100
AcDbEntity
  8
Aide PériPhérique
  6
ByLayer
 62
  256
370
   -1
100
AcDbLine
 10
19.99999999999989
 20
149.40273556231
 11
15.66987298107771
 21
151.90273556231
  0
LINE
  5
11F
100
AcDbEntity
  8
Aide PériPhérique
  6
ByLayer
 62
  256
370
   -1
100
AcDbLine
 10
15.66987298107769
 20
146.90273556231
 11
15.66987298107771
 21
151.90273556231
  0
CIRCLE
  5
120
100
AcDbEntity
  8
Aide PériPhérique
  6
ByLayer
 62
  256
370
   -1
100
AcDbCircle
 10
15
 20
75.15273556231014
 40
3
  0
MTEXT
  5
121
100
AcDbEntity
  8
Aide PériPhérique
  6
ByLayer
 62
  256
370
   -1
100
AcDbMText
 10
15
 20
75.15273556231014
 30
0
 40
4
 41
2.666666666666667
 71
    5
 72
    5
  1
A
  7
iso
210
0
220
0
230
1
 50
6.283185307179586
 73
    2
 44
0.96
  0
MTEXT
  5
122
100
AcDbEntity
  8
Aide PériPhérique
  6
ByLayer
 62
  256
370
   -1
100
AcDbMText
 10
15.00000000000002
 20
223.6527355623101
 30
0
 40
4
 41
2.222222222222222
 71
    5
 72
    5
  1
B
  7
iso
210
0
220
0
230
1
 50
6.283185307179586
 73
    2
 44
0.96
  0
LINE
  5
123
100
AcDbEntity
  8
Cadre Extérieur
  6
ByLayer
 62
  256
370
   -1
100
AcDbLine
 10
20
 20
287.9027355623101
 11
20
 21
10.90273556231003
  0
LINE
  5
124
100
AcDbEntity
  8
Aide PériPhérique
  6
ByLayer
 62
  256
370
   -1
100
AcDbLine
 10
1.82e-014
 20
297.9027355623101
 11
0
 21
0.9027355623100314
  0
LINE
  5
125
100
AcDbEntity
  8
Cadre Extérieur
  6
ByLayer
 62
  256
370
   -1
100
AcDbLine
 10
20
 20
10.90273556231003
 11
410
 21
10.90273556230998
  0
LINE
  5
126
100
AcDbEntity
  8
Cadre Extérieur
  6
ByLayer
 62
  256
370
   -1
100
AcDbLine
 10
410.000061
 20
66.15291656231018
 11
410
 21
10.90273556230998
  0
LINE
  5
127
100
AcDbEntity
  8
Cadre Extérieur
  6
ByLayer
 62
  256
370
   -1
100
AcDbLine
 10
410
 20
10.90273556230998
 11
222.800018
 21
10.90283656230969
  0
LINE
  5
128
100
AcDbEntity
  8
Symbol ISO
  6
ByLayer
 62
  256
370
   -1
100
AcDbLine
 10
280.2711420000001
 20
58.14561156231
 11
300.2711420000001
 21
58.1456115623099
  0
CIRCLE
  5
129
100
AcDbEntity
  8
Symbol ISO
  6
ByLayer
 62
  256
370
   -1
100
AcDbCircle
 10
295.4711420000001
 20
58.14561156230977
 40
2.8
  0
CIRCLE
  5
12A
100
AcDbEntity
  8
Symbol ISO
  6
ByLayer
 62
  256
370
   -1
100
AcDbCircle
 10
295.4711420000001
 20
58.14561156230977
 40
1.6
  0
LINE
  5
12B
100
AcDbEntity
  8
Symbol ISO
  6
ByLayer
 62
  256
370
   -1
100
AcDbLine
 10
282.6711419999999
 20
59.74561156230998
 11
282.6711419999999
 21
56.54561156231006
  0
LINE
  5
12C
100
AcDbEntity
  8
Symbol ISO
  6
ByLayer
 62
  256
370
   -1
100
AcDbLine
 10
282.6711419999999
 20
56.54561156231006
 11
289.071142
 21
55.34561156230996
  0
LINE
  5
12D
100
AcDbEntity
  8
Symbol ISO
  6
ByLayer
 62
  256
370
   -1
100
AcDbLine
 10
289.071142
 20
60.94561156231008
 11
289.071142
 21
55.34561156230996
  0
LINE
  5
12E
100
AcDbEntity
  8
Symbol ISO
  6
ByLayer
 62
  256
370
   -1
100
AcDbLine
 10
282.6711419999999
 20
59.74561156230998
 11
289.071142
 21
60.94561156231008
  0
LINE
  5
12F
100
AcDbEntity
  8
Symbol ISO
  6
ByLayer
 62
  256
370
   -1
100
AcDbLine
 10
295.4711420000001
 20
53.34561156230991
 11
295.4711420000001
 21
62.94561156231008
  0
CIRCLE
  5
130
100
AcDbEntity
  8
Aide PériPhérique
  6
ByLayer
 62
  256
370
   -1
100
AcDbCircle
 10
414.9999999999998
 20
223.6527355623099
 40
3
  0
LINE
  5
131
100
AcDbEntity
  8
Aide PériPhérique
  6
ByLayer
 62
  256
370
   -1
100
AcDbLine
 10
410.0000000000002
 20
149.40273556231
 11
414.3301270189227
 21
146.9027355623101
  0
LINE
  5
132
100
AcDbEntity
  8
Aide PériPhérique
  6
ByLayer
 62
  256
370
   -1
100
AcDbLine
 10
410.0000000000002
 20
149.40273556231
 11
414.3301270189222
 21
151.9027355623098
  0
LINE
  5
133
100
AcDbEntity
  8
Aide PériPhérique
  6
ByLayer
 62
  256
370
   -1
100
AcDbLine
 10
414.3301270189227
 20
146.9027355623101
 11
414.3301270189222
 21
151.9027355623098
  0
CIRCLE
  5
134
100
AcDbEntity
  8
Aide PériPhérique
  6
ByLayer
 62
  256
370
   -1
100
AcDbCircle
 10
415
 20
75.1527355623101
 40
3
  0
MTEXT
  5
135
100
AcDbEntity
  8
Aide PériPhérique
  6
ByLayer
 62
  256
370
   -1
100
AcDbMText
 10
415
 20
75.1527355623101
 30
0
 40
4
 41
2.666666666666667
 71
    5
 72
    5
  1
A
  7
iso
210
0
220
0
230
1
 50
6.283185307179586
 73
    2
 44
0.96
  0
MTEXT
  5
136
100
AcDbEntity
  8
Aide PériPhérique
  6
ByLayer
 62
  256
370
   -1
100
AcDbMText
 10
414.9999999999998
 20
223.6527355623099
 30
0
 40
4
 41
2.222222222222222
 71
    5
 72
    5
  1
B
  7
iso
210
0
220
0
230
1
 50
6.283185307179586
 73
    2
 44
0.96
  0
LINE
  5
137
100
AcDbEntity
  8
Cadre Extérieur
  6
ByLayer
 62
  256
370
   -1
100
AcDbLine
 10
20
 20
287.9027355623101
 11
410
 21
287.9027355623099
  0
LINE
  5
138
100
AcDbEntity
  8
Cadre Extérieur
  6
ByLayer
 62
  256
370
   -1
100
AcDbLine
 10
410
 20
287.9027355623099
 11
410
 21
10.90273556230998
  0
LINE
  5
139
100
AcDbEntity
  8
Aide PériPhérique
  6
ByLayer
 62
  256
370
   -1
100
AcDbLine
 10
420
 20
297.9027355623101
 11
1.82e-014
 21
297.9027355623101
  0
LINE
  5
13A
100
AcDbEntity
  8
Aide PériPhérique
  6
ByLayer
 62
  256
370
   -1
100
AcDbLine
 10
125
 20
0.9027355623100314
 11
125
 21
10.90273556230993
  0
LINE
  5
13B
100
AcDbEntity
  8
Aide PériPhérique
  6
ByLayer
 62
  256
370
   -1
100
AcDbLine
 10
230
 20
0.9027355623100314
 11
230
 21
10.90273556231051
  0
LINE
  5
13C
100
AcDbEntity
  8
Aide PériPhérique
  6
ByLayer
 62
  256
370
   -1
100
AcDbLine
 10
124.9999760000001
 20
10.90271156231017
 11
122.499976
 21
6.572584543387936
  0
LINE
  5
13D
100
AcDbEntity
  8
Aide PériPhérique
  6
ByLayer
 62
  256
370
   -1
100
AcDbLine
 10
124.9999760000001
 20
10.90271156231017
 11
127.4999760000001
 21
6.572584543387763
  0
LINE
  5
13E
100
AcDbEntity
  8
Aide PériPhérique
  6
ByLayer
 62
  256
370
   -1
100
AcDbLine
 10
122.499976
 20
6.572584543387936
 11
127.4999760000001
 21
6.572584543387763
  0
CIRCLE
  5
13F
100
AcDbEntity
  8
Aide PériPhérique
  6
ByLayer
 62
  256
370
   -1
100
AcDbCircle
 10
177.4999999999999
 20
5.90273556230905
 40
3
  0
LINE
  5
140
100
AcDbEntity
  8
Aide PériPhérique
  6
ByLayer
 62
  256
370
   -1
100
AcDbLine
 10
229.9999760000001
 20
10.90271156231071
 11
227.4999760000001
 21
6.572584543387261
  0
LINE
  5
141
100
AcDbEntity
  8
Aide PériPhérique
  6
ByLayer
 62
  256
370
   -1
100
AcDbLine
 10
229.9999760000001
 20
10.90271156231071
 11
232.4999760000001
 21
6.572584543387075
  0
LINE
  5
142
100
AcDbEntity
  8
Aide PériPhérique
  6
ByLayer
 62
  256
370
   -1
100
AcDbLine
 10
227.4999760000001
 20
6.572584543387261
 11
232.4999760000001
 21
6.572584543387075
  0
CIRCLE
  5
143
100
AcDbEntity
  8
Aide PériPhérique
  6
ByLayer
 62
  256
370
   -1
100
AcDbCircle
 10
72.49999999999999
 20
5.902735562309963
 40
3
  0
MTEXT
  5
144
100
AcDbEntity
  8
Aide PériPhérique
  6
ByLayer
 62
  256
370
   -1
100
AcDbMText
 10
72.49999999999999
 20
5.902735562309963
 30
0
 40
4
 41
0.8888888888888888
 71
    5
 72
    5
  1
1
  7
iso
210
0
220
0
230
1
 50
0
 73
    2
 44
0.96
  0
MTEXT
  5
145
100
AcDbEntity
  8
Aide PériPhérique
  6
ByLayer
 62
  256
370
   -1
100
AcDbMText
 10
177.4999999999999
 20
5.90273556230905
 30
0
 40
4
 41
1.777777777777778
 71
    5
 72
    5
  1
2
  7
iso
210
0
220
0
230
1
 50
0
 73
    2
 44
0.96
  0
CIRCLE
  5
146
100
AcDbEntity
  8
Aide PériPhérique
  6
ByLayer
 62
  256
370
   -1
100
AcDbCircle
 10
278
 20
5.902735562310135
 40
3
  0
MTEXT
  5
147
100
AcDbEntity
  8
Aide PériPhérique
  6
ByLayer
 62
  256
370
   -1
100
AcDbMText
 10
278
 20
5.902735562310135
 30
0
 40
4
 41
1.777777777778026
 71
    5
 72
    5
  1
3
  7
iso
210
0
220
0
230
1
 50
0
 73
    2
 44
0.96
  0
LINE
  5
148
100
AcDbEntity
  8
Aide PériPhérique
  6
ByLayer
 62
  256
370
   -1
100
AcDbLine
 10
315
 20
10.90271156230965
 11
312.5
 21
6.572584543387691
  0
LINE
  5
149
100
AcDbEntity
  8
Aide PériPhérique
  6
ByLayer
 62
  256
370
   -1
100
AcDbLine
 10
315
 20
10.90271156230965
 11
317.5
 21
6.572584543387954
  0
LINE
  5
14A
100
AcDbEntity
  8
Aide PériPhérique
  6
ByLayer
 62
  256
370
   -1
100
AcDbLine
 10
312.5
 20
6.572584543387691
 11
317.5
 21
6.572584543387954
  0
CIRCLE
  5
14B
100
AcDbEntity
  8
Aide PériPhérique
  6
ByLayer
 62
  256
370
   -1
100
AcDbCircle
 10
363.0000239999999
 20
5.902735562309645
 40
3
  0
MTEXT
  5
14C
100
AcDbEntity
  8
Aide PériPhérique
  6
ByLayer
 62
  256
370
   -1
100
AcDbMText
 10
363.0000239999999
 20
5.902735562309645
 30
0
 40
4
 41
2.222222222222222
 71
    5
 72
    5
  1
4
  7
iso
210
0
220
0
230
1
 50
0
 73
    2
 44
0.96
  0
LINE
  5
14D
100
AcDbEntity
  8
Aide PériPhérique
  6
ByLayer
 62
  256
370
   -1
100
AcDbLine
 10
420
 20
0.9027355623100314
 11
420
 21
297.9027355623101
  0
LINE
  5
14E
100
AcDbEntity
  8
Aide PériPhérique
  6
ByLayer
 62
  256
370
   -1
100
AcDbLine
 10
3.55e-014
 20
0.9027355623100314
 11
420
 21
0.9027355623100314
  0
LINE
  5
14F
100
AcDbEntity
  8
Aide PériPhérique
  6
ByLayer
 62
  256
370
   -1
100
AcDbLine
 10
124.9999999999999
 20
297.9027355623103
 11
125
 21
287.9027355623101
  0
LINE
  5
150
100
AcDbEntity
  8
Aide PériPhérique
  6
ByLayer
 62
  256
370
   -1
100
AcDbLine
 10
229.9999999999999
 20
297.9027355623103
 11
230
 21
287.9027355623101
  0
LINE
  5
151
100
AcDbEntity
  8
Aide PériPhérique
  6
ByLayer
 62
  256
370
   -1
100
AcDbLine
 10
124.999976
 20
287.9027595623099
 11
122.4999759999999
 21
292.2328865812324
  0
LINE
  5
152
100
AcDbEntity
  8
Aide PériPhérique
  6
ByLayer
 62
  256
370
   -1
100
AcDbLine
 10
124.999976
 20
287.9027595623099
 11
127.4999760000001
 21
292.2328865812323
  0
LINE
  5
153
100
AcDbEntity
  8
Aide PériPhérique
  6
ByLayer
 62
  256
370
   -1
100
AcDbLine
 10
122.4999759999999
 20
292.2328865812324
 11
127.4999760000001
 21
292.2328865812323
  0
CIRCLE
  5
154
100
AcDbEntity
  8
Aide PériPhérique
  6
ByLayer
 62
  256
370
   -1
100
AcDbCircle
 10
177.4999999999999
 20
292.9027355623102
 40
3
  0
LINE
  5
155
100
AcDbEntity
  8
Aide PériPhérique
  6
ByLayer
 62
  256
370
   -1
100
AcDbLine
 10
229.9999760000001
 20
287.9027595623101
 11
227.4999760000001
 21
292.2328865812323
  0
LINE
  5
156
100
AcDbEntity
  8
Aide PériPhérique
  6
ByLayer
 62
  256
370
   -1
100
AcDbLine
 10
229.9999760000001
 20
287.9027595623101
 11
232.4999759999999
 21
292.2328865812324
  0
LINE
  5
157
100
AcDbEntity
  8
Aide PériPhérique
  6
ByLayer
 62
  256
370
   -1
100
AcDbLine
 10
227.4999760000001
 20
292.2328865812323
 11
232.4999759999999
 21
292.2328865812324
  0
CIRCLE
  5
158
100
AcDbEntity
  8
Aide PériPhérique
  6
ByLayer
 62
  256
370
   -1
100
AcDbCircle
 10
72.49999999999997
 20
292.9027355623101
 40
3
  0
MTEXT
  5
159
100
AcDbEntity
  8
Aide PériPhérique
  6
ByLayer
 62
  256
370
   -1
100
AcDbMText
 10
72.49999999999997
 20
292.9027355623101
 30
0
 40
4
 41
0.8888888888888888
 71
    5
 72
    5
  1
1
  7
iso
210
0
220
0
230
1
 50
0
 73
    2
 44
0.96
  0
MTEXT
  5
15A
100
AcDbEntity
  8
Aide PériPhérique
  6
ByLayer
 62
  256
370
   -1
100
AcDbMText
 10
177.4999999999999
 20
292.9027355623102
 30
0
 40
4
 41
1.777777777777778
 71
    5
 72
    5
  1
2
  7
iso
210
0
220
0
230
1
 50
0
 73
    2
 44
0.96
  0
CIRCLE
  5
15B
100
AcDbEntity
  8
Aide PériPhérique
  6
ByLayer
 62
  256
370
   -1
100
AcDbCircle
 10
278
 20
292.9027355623101
 40
3
  0
MTEXT
  5
15C
100
AcDbEntity
  8
Aide PériPhérique
  6
ByLayer
 62
  256
370
   -1
100
AcDbMText
 10
278
 20
292.9027355623101
 30
0
 40
4
 41
1.777777777778026
 71
    5
 72
    5
  1
3
  7
iso
210
0
220
0
230
1
 50
0
 73
    2
 44
0.96
  0
LINE
  5
15D
100
AcDbEntity
  8
Aide PériPhérique
  6
ByLayer
 62
  256
370
   -1
100
AcDbLine
 10
315
 20
287.9027595623102
 11
312.4999999999999
 21
292.2328865812324
  0
LINE
  5
15E
100
AcDbEntity
  8
Aide PériPhérique
  6
ByLayer
 62
  256
370
   -1
100
AcDbLine
 10
315
 20
287.9027595623102
 11
317.4999999999999
 21
292.2328865812323
  0
LINE
  5
15F
100
AcDbEntity
  8
Aide PériPhérique
  6
ByLayer
 62
  256
370
   -1
100
AcDbLine
 10
312.4999999999999
 20
292.2328865812324
 11
317.4999999999999
 21
292.2328865812323
  0
CIRCLE
  5
160
100
AcDbEntity
  8
Aide PériPhérique
  6
ByLayer
 62
  256
370
   -1
100
AcDbCircle
 10
363.0000239999999
 20
292.9027355623103
 40
3
  0
MTEXT
  5
161
100
AcDbEntity
  8
Aide PériPhérique
  6
ByLayer
 62
  256
370
   -1
100
AcDbMText
 10
363.0000239999999
 20
292.9027355623103
 30
0
 40
4
 41
2.222222222222222
 71
    5
 72
    5
  1
4
  7
iso
210
0
220
0
230
1
 50
0
 73
    2
 44
0.96
  0
CIRCLE
  5
162
100
AcDbEntity
  8
Aide PériPhérique
  6
ByLayer
 62
  256
370
   -1
100
AcDbCircle
 10
15.00000000000002
 20
223.6527355623101
 40
3
  0
LINE
  5
163
100
AcDbEntity
  8
Aide PériPhérique
  6
ByLayer
 62
  256
370
   -1
100
AcDbLine
 10
19.99999999999989
 20
149.40273556231
 11
15.66987298107769
 21
146.90273556231
  0
LINE
  5
164
100
AcDbEntity
  8
Aide PériPhérique
  6
ByLayer
 62
  256
370
   -1
100
AcDbLine
 10
19.99999999999989
 20
149.40273556231
 11
15.66987298107771
 21
151.90273556231
  0
LINE
  5
165
100
AcDbEntity
  8
Aide PériPhérique
  6
ByLayer
 62
  256
370
   -1
100
AcDbLine
 10
15.66987298107769
 20
146.90273556231
 11
15.66987298107771
 21
151.90273556231
  0
CIRCLE
  5
166
100
AcDbEntity
  8
Aide PériPhérique
  6
ByLayer
 62
  256
370
   -1
100
AcDbCircle
 10
15
 20
75.15273556231014
 40
3
  0
MTEXT
  5
167
100
AcDbEntity
  8
Aide PériPhérique
  6
ByLayer
 62
  256
370
   -1
100
AcDbMText
 10
15
 20
75.15273556231014
 30
0
 40
4
 41
2.666666666666667
 71
    5
 72
    5
  1
A
  7
iso
210
0
220
0
230
1
 50
6.283185307179586
 73
    2
 44
0.96
  0
MTEXT
  5
168
100
AcDbEntity
  8
Aide PériPhérique
  6
ByLayer
 62
  256
370
   -1
100
AcDbMText
 10
15.00000000000002
 20
223.6527355623101
 30
0
 40
4
 41
2.222222222222222
 71
    5
 72
    5
  1
B
  7
iso
210
0
220
0
230
1
 50
6.283185307179586
 73
    2
 44
0.96
  0
LINE
  5
169
100
AcDbEntity
  8
Cadre Extérieur
  6
ByLayer
 62
  256
370
   -1
100
AcDbLine
 10
20
 20
287.9027355623101
 11
20
 21
10.90273556231003
  0
LINE
  5
16A
100
AcDbEntity
  8
Aide PériPhérique
  6
ByLayer
 62
  256
370
   -1
100
AcDbLine
 10
1.82e-014
 20
297.9027355623101
 11
0
 21
0.9027355623100314
  0
LINE
  5
16B
100
AcDbEntity
  8
Cadre Extérieur
  6
ByLayer
 62
  256
370
   -1
100
AcDbLine
 10
20
 20
10.90273556231003
 11
410
 21
10.90273556230998
  0
LINE
  5
16C
100
AcDbEntity
  8
Cadre Extérieur
  6
ByLayer
 62
  256
370
   -1
100
AcDbLine
 10
410.000061
 20
66.15291656231018
 11
410
 21
10.90273556230998
  0
LINE
  5
16D
100
AcDbEntity
  8
Cadre Extérieur
  6
ByLayer
 62
  256
370
   -1
100
AcDbLine
 10
410
 20
10.90273556230998
 11
222.800018
 21
10.90283656230969
  0
LINE
  5
16E
100
AcDbEntity
  8
Symbol ISO
  6
ByLayer
 62
  256
370
   -1
100
AcDbLine
 10
280.2711420000001
 20
58.14561156231
 11
300.2711420000001
 21
58.1456115623099
  0
CIRCLE
  5
16F
100
AcDbEntity
  8
Symbol ISO
  6
ByLayer
 62
  256
370
   -1
100
AcDbCircle
 10
295.4711420000001
 20
58.14561156230977
 40
2.8
  0
CIRCLE
  5
170
100
AcDbEntity
  8
Symbol ISO
  6
ByLayer
 62
  256
370
   -1
100
AcDbCircle
 10
295.4711420000001
 20
58.14561156230977
 40
1.6
  0
LINE
  5
171
100
AcDbEntity
  8
Symbol ISO
  6
ByLayer
 62
  256
370
   -1
100
AcDbLine
 10
282.6711419999999
 20
59.74561156230998
 11
282.6711419999999
 21
56.54561156231006
  0
LINE
  5
172
100
AcDbEntity
  8
Symbol ISO
  6
ByLayer
 62
  256
370
   -1
100
AcDbLine
 10
282.6711419999999
 20
56.54561156231006
 11
289.071142
 21
55.34561156230996
  0
LINE
  5
173
100
AcDbEntity
  8
Symbol ISO
  6
ByLayer
 62
  256
370
   -1
100
AcDbLine
 10
289.071142
 20
60.94561156231008
 11
289.071142
 21
55.34561156230996
  0
LINE
  5
174
100
AcDbEntity
  8
Symbol ISO
  6
ByLayer
 62
  256
370
   -1
100
AcDbLine
 10
282.6711419999999
 20
59.74561156230998
 11
289.071142
 21
60.94561156231008
  0
LINE
  5
175
100
AcDbEntity
  8
Symbol ISO
  6
ByLayer
 62
  256
370
   -1
100
AcDbLine
 10
295.4711420000001
 20
53.34561156230991
 11
295.4711420000001
 21
62.94561156231008
  0
CIRCLE
  5
176
100
AcDbEntity
  8
Aide PériPhérique
  6
ByLayer
 62
  256
370
   -1
100
AcDbCircle
 10
414.9999999999998
 20
223.6527355623099
 40
3
  0
LINE
  5
177
100
AcDbEntity
  8
Aide PériPhérique
  6
ByLayer
 62
  256
370
   -1
100
AcDbLine
 10
410.0000000000002
 20
149.40273556231
 11
414.3301270189227
 21
146.9027355623101
  0
LINE
  5
178
100
AcDbEntity
  8
Aide PériPhérique
  6
ByLayer
 62
  256
370
   -1
100
AcDbLine
 10
410.0000000000002
 20
149.40273556231
 11
414.3301270189222
 21
151.9027355623098
  0
LINE
  5
179
100
AcDbEntity
  8
Aide PériPhérique
  6
ByLayer
 62
  256
370
   -1
100
AcDbLine
 10
414.3301270189227
 20
146.9027355623101
 11
414.3301270189222
 21
151.9027355623098
  0
CIRCLE
  5
17A
100
AcDbEntity
  8
Aide PériPhérique
  6
ByLayer
 62
  256
370
   -1
100
AcDbCircle
 10
415
 20
75.1527355623101
 40
3
  0
MTEXT
  5
17B
100
AcDbEntity
  8
Aide PériPhérique
  6
ByLayer
 62
  256
370
   -1
100
AcDbMText
 10
415
 20
75.1527355623101
 30
0
 40
4
 41
2.666666666666667
 71
    5
 72
    5
  1
A
  7
iso
210
0
220
0
230
1
 50
6.283185307179586
 73
    2
 44
0.96
  0
MTEXT
  5
17C
100
AcDbEntity
  8
Aide PériPhérique
  6
ByLayer
 62
  256
370
   -1
100
AcDbMText
 10
414.9999999999998
 20
223.6527355623099
 30
0
 40
4
 41
2.222222222222222
 71
    5
 72
    5
  1
B
  7
iso
210
0
220
0
230
1
 50
6.283185307179586
 73
    2
 44
0.96
  0
LINE
  5
17D
100
AcDbEntity
  8
Cadre Extérieur
  6
ByLayer
 62
  256
370
   -1
100
AcDbLine
 10
20
 20
287.9027355623101
 11
410
 21
287.9027355623099
  0
LINE
  5
17E
100
AcDbEntity
  8
Cadre Extérieur
  6
ByLayer
 62
  256
370
   -1
100
AcDbLine
 10
410
 20
287.9027355623099
 11
410
 21
10.90273556230998
  0
LINE
  5
17F
100
AcDbEntity
  8
Aide PériPhérique
  6
ByLayer
 62
  256
370
   -1
100
AcDbLine
 10
420
 20
297.9027355623101
 11
1.82e-014
 21
297.9027355623101
  0
LINE
  5
180
100
AcDbEntity
  8
Aide PériPhérique
  6
ByLayer
 62
  256
370
   -1
100
AcDbLine
 10
125
 20
0.9027355623100314
 11
125
 21
10.90273556230993
  0
LINE
  5
181
100
AcDbEntity
  8
Aide PériPhérique
  6
ByLayer
 62
  256
370
   -1
100
AcDbLine
 10
230
 20
0.9027355623100314
 11
230
 21
10.90273556231051
  0
LINE
  5
182
100
AcDbEntity
  8
Aide PériPhérique
  6
ByLayer
 62
  256
370
   -1
100
AcDbLine
 10
124.9999760000001
 20
10.90271156231017
 11
122.499976
 21
6.572584543387936
  0
LINE
  5
183
100
AcDbEntity
  8
Aide PériPhérique
  6
ByLayer
 62
  256
370
   -1
100
AcDbLine
 10
124.9999760000001
 20
10.90271156231017
 11
127.4999760000001
 21
6.572584543387763
  0
LINE
  5
184
100
AcDbEntity
  8
Aide PériPhérique
  6
ByLayer
 62
  256
370
   -1
100
AcDbLine
 10
122.499976
 20
6.572584543387936
 11
127.4999760000001
 21
6.572584543387763
  0
CIRCLE
  5
185
100
AcDbEntity
  8
Aide PériPhérique
  6
ByLayer
 62
  256
370
   -1
100
AcDbCircle
 10
177.4999999999999
 20
5.90273556230905
 40
3
  0
LINE
  5
186
100
AcDbEntity
  8
Aide PériPhérique
  6
ByLayer
 62
  256
370
   -1
100
AcDbLine
 10
229.9999760000001
 20
10.90271156231071
 11
227.4999760000001
 21
6.572584543387261
  0
LINE
  5
187
100
AcDbEntity
  8
Aide PériPhérique
  6
ByLayer
 62
  256
370
   -1
100
AcDbLine
 10
229.9999760000001
 20
10.90271156231071
 11
232.4999760000001
 21
6.572584543387075
  0
LINE
  5
188
100
AcDbEntity
  8
Aide PériPhérique
  6
ByLayer
 62
  256
370
   -1
100
AcDbLine
 10
227.4999760000001
 20
6.572584543387261
 11
232.4999760000001
 21
6.572584543387075
  0
CIRCLE
  5
189
100
AcDbEntity
  8
Aide PériPhérique
  6
ByLayer
 62
  256
370
   -1
100
AcDbCircle
 10
72.49999999999999
 20
5.902735562309963
 40
3
  0
MTEXT
  5
18A
100
AcDbEntity
  8
Aide PériPhérique
  6
ByLayer
 62
  256
370
   -1
100
AcDbMText
 10
72.49999999999999
 20
5.902735562309963
 30
0
 40
4
 41
0.8888888888888888
 71
    5
 72
    5
  1
1
  7
iso
210
0
220
0
230
1
 50
0
 73
    2
 44
0.96
  0
MTEXT
  5
18B
100
AcDbEntity
  8
Aide PériPhérique
  6
ByLayer
 62
  256
370
   -1
100
AcDbMText
 10
177.4999999999999
 20
5.90273556230905
 30
0
 40
4
 41
1.777777777777778
 71
    5
 72
    5
  1
2
  7
iso
210
0
220
0
230
1
 50
0
 73
    2
 44
0.96
  0
CIRCLE
  5
18C
100
AcDbEntity
  8
Aide PériPhérique
  6
ByLayer
 62
  256
370
   -1
100
AcDbCircle
 10
278
 20
5.902735562310135
 40
3
  0
MTEXT
  5
18D
100
AcDbEntity
  8
Aide PériPhérique
  6
ByLayer
 62
  256
370
   -1
100
AcDbMText
 10
278
 20
5.902735562310135
 30
0
 40
4
 41
1.777777777778026
 71
    5
 72
    5
  1
3
  7
iso
210
0
220
0
230
1
 50
0
 73
    2
 44
0.96
  0
LINE
  5
18E
100
AcDbEntity
  8
Aide PériPhérique
  6
ByLayer
 62
  256
370
   -1
100
AcDbLine
 10
315
 20
10.90271156230965
 11
312.5
 21
6.572584543387691
  0
LINE
  5
18F
100
AcDbEntity
  8
Aide PériPhérique
  6
ByLayer
 62
  256
370
   -1
100
AcDbLine
 10
315
 20
10.90271156230965
 11
317.5
 21
6.572584543387954
  0
LINE
  5
190
100
AcDbEntity
  8
Aide PériPhérique
  6
ByLayer
 62
  256
370
   -1
100
AcDbLine
 10
312.5
 20
6.572584543387691
 11
317.5
 21
6.572584543387954
  0
CIRCLE
  5
191
100
AcDbEntity
  8
Aide PériPhérique
  6
ByLayer
 62
  256
370
   -1
100
AcDbCircle
 10
363.0000239999999
 20
5.902735562309645
 40
3
  0
MTEXT
  5
192
100
AcDbEntity
  8
Aide PériPhérique
  6
ByLayer
 62
  256
370
   -1
100
AcDbMText
 10
363.0000239999999
 20
5.902735562309645
 30
0
 40
4
 41
2.222222222222222
 71
    5
 72
    5
  1
4
  7
iso
210
0
220
0
230
1
 50
0
 73
    2
 44
0.96
  0
LINE
  5
193
100
AcDbEntity
  8
Aide PériPhérique
  6
ByLayer
 62
  256
370
   -1
100
AcDbLine
 10
420
 20
0.9027355623100314
 11
420
 21
297.9027355623101
  0
LINE
  5
194
100
AcDbEntity
  8
Aide PériPhérique
  6
ByLayer
 62
  256
370
   -1
100
AcDbLine
 10
3.55e-014
 20
0.9027355623100314
 11
420
 21
0.9027355623100314
  0
LINE
  5
195
100
AcDbEntity
  8
Aide PériPhérique
  6
ByLayer
 62
  256
370
   -1
100
AcDbLine
 10
124.9999999999999
 20
297.9027355623103
 11
125
 21
287.9027355623101
  0
LINE
  5
196
100
AcDbEntity
  8
Aide PériPhérique
  6
ByLayer
 62
  256
370
   -1
100
AcDbLine
 10
229.9999999999999
 20
297.9027355623103
 11
230
 21
287.9027355623101
  0
LINE
  5
197
100
AcDbEntity
  8
Aide PériPhérique
  6
ByLayer
 62
  256
370
   -1
100
AcDbLine
 10
124.999976
 20
287.9027595623099
 11
122.4999759999999
 21
292.2328865812324
  0
LINE
  5
198
100
AcDbEntity
  8
Aide PériPhérique
  6
ByLayer
 62
  256
370
   -1
100
AcDbLine
 10
124.999976
 20
287.9027595623099
 11
127.4999760000001
 21
292.2328865812323
  0
LINE
  5
199
100
AcDbEntity
  8
Aide PériPhérique
  6
ByLayer
 62
  256
370
   -1
100
AcDbLine
 10
122.4999759999999
 20
292.2328865812324
 11
127.4999760000001
 21
292.2328865812323
  0
CIRCLE
  5
19A
100
AcDbEntity
  8
Aide PériPhérique
  6
ByLayer
 62
  256
370
   -1
100
AcDbCircle
 10
177.4999999999999
 20
292.9027355623102
 40
3
  0
LINE
  5
19B
100
AcDbEntity
  8
Aide PériPhérique
  6
ByLayer
 62
  256
370
   -1
100
AcDbLine
 10
229.9999760000001
 20
287.9027595623101
 11
227.4999760000001
 21
292.2328865812323
  0
LINE
  5
19C
100
AcDbEntity
  8
Aide PériPhérique
  6
ByLayer
 62
  256
370
   -1
100
AcDbLine
 10
229.9999760000001
 20
287.9027595623101
 11
232.4999759999999
 21
292.2328865812324
  0
LINE
  5
19D
100
AcDbEntity
  8
Aide PériPhérique
  6
ByLayer
 62
  256
370
   -1
100
AcDbLine
 10
227.4999760000001
 20
292.2328865812323
 11
232.4999759999999
 21
292.2328865812324
  0
CIRCLE
  5
19E
100
AcDbEntity
  8
Aide PériPhérique
  6
ByLayer
 62
  256
370
   -1
100
AcDbCircle
 10
72.49999999999997
 20
292.9027355623101
 40
3
  0
MTEXT
  5
19F
100
AcDbEntity
  8
Aide PériPhérique
  6
ByLayer
 62
  256
370
   -1
100
AcDbMText
 10
72.49999999999997
 20
292.9027355623101
 30
0
 40
4
 41
0.8888888888888888
 71
    5
 72
    5
  1
1
  7
iso
210
0
220
0
230
1
 50
0
 73
    2
 44
0.96
  0
MTEXT
  5
1A0
100
AcDbEntity
  8
Aide PériPhérique
  6
ByLayer
 62
  256
370
   -1
100
AcDbMText
 10
177.4999999999999
 20
292.9027355623102
 30
0
 40
4
 41
1.777777777777778
 71
    5
 72
    5
  1
2
  7
iso
210
0
220
0
230
1
 50
0
 73
    2
 44
0.96
  0
CIRCLE
  5
1A1
100
AcDbEntity
  8
Aide PériPhérique
  6
ByLayer
 62
  256
370
   -1
100
AcDbCircle
 10
278
 20
292.9027355623101
 40
3
  0
MTEXT
  5
1A2
100
AcDbEntity
  8
Aide PériPhérique
  6
ByLayer
 62
  256
370
   -1
100
AcDbMText
 10
278
 20
292.9027355623101
 30
0
 40
4
 41
1.777777777778026
 71
    5
 72
    5
  1
3
  7
iso
210
0
220
0
230
1
 50
0
 73
    2
 44
0.96
  0
LINE
  5
1A3
100
AcDbEntity
  8
Aide PériPhérique
  6
ByLayer
 62
  256
370
   -1
100
AcDbLine
 10
315
 20
287.9027595623102
 11
312.4999999999999
 21
292.2328865812324
  0
LINE
  5
1A4
100
AcDbEntity
  8
Aide PériPhérique
  6
ByLayer
 62
  256
370
   -1
100
AcDbLine
 10
315
 20
287.9027595623102
 11
317.4999999999999
 21
292.2328865812323
  0
LINE
  5
1A5
100
AcDbEntity
  8
Aide PériPhérique
  6
ByLayer
 62
  256
370
   -1
100
AcDbLine
 10
312.4999999999999
 20
292.2328865812324
 11
317.4999999999999
 21
292.2328865812323
  0
CIRCLE
  5
1A6
100
AcDbEntity
  8
Aide PériPhérique
  6
ByLayer
 62
  256
370
   -1
100
AcDbCircle
 10
363.0000239999999
 20
292.9027355623103
 40
3
  0
MTEXT
  5
1A7
100
AcDbEntity
  8
Aide PériPhérique
  6
ByLayer
 62
  256
370
   -1
100
AcDbMText
 10
363.0000239999999
 20
292.9027355623103
 30
0
 40
4
 41
2.222222222222222
 71
    5
 72
    5
  1
4
  7
iso
210
0
220
0
230
1
 50
0
 73
    2
 44
0.96
  0
LWPOLYLINE
  5
1A8
100
AcDbEntity
  8
4_Traits forts
  6
ByLayer
 62
  256
370
   18
100
AcDbPolyline
 90
    4
 70
    1
 43
0
 10
18.42700729927009
 20
9.032297606105658
 10
18.42700729927009
 20
9.032297606105658
 10
18.42700729927009
 20
9.032297606105658
 10
18.42700729927009
 20
9.032297606105658
  0
LINE
  5
1A9
100
AcDbEntity
  8
2_Fin
  6
ByLayer
 62
  256
370
   18
100
AcDbLine
 10
222.8213251035384
 20
15.9582305017383
 11
321.5184585953459
 21
15.9582305017383
  0
LINE
  5
1AA
100
AcDbEntity
  8
2_Fin
  6
ByLayer
 62
  256
370
   18
100
AcDbLine
 10
246.6870726371506
 20
15.9582305017383
 11
277.2441512549532
 21
15.9582305017383
  0
LINE
  5
1AB
100
AcDbEntity
  8
2_Fin
  6
ByLayer
 62
  256
370
   18
100
AcDbLine
 10
277.2441512549532
 20
15.9582305017383
 11
277.2441512549532
 21
66.36625800263887
  0
LINE
  5
1AC
100
AcDbEntity
  8
2_Fin
  6
ByLayer
 62
  256
370
   18
100
AcDbLine
 10
302.2251206359305
 20
66.36625800263887
 11
302.2251206359305
 21
16.06975268647481
  0
LINE
  5
1AD
100
AcDbEntity
  8
Cadre Extérieur
  6
ByLayer
 62
  256
370
   35
100
AcDbLine
 10
222.8
 20
66.15283556231003
 11
222.8
 21
10.90283556231003
  0
LINE
  5
1AE
100
AcDbEntity
  8
4_Traits forts
  6
ByLayer
 62
  256
370
   35
100
AcDbLine
 10
223.261
 20
66.15283556231003
 11
409.797
 21
66.15283556231003
  0
LINE
  5
1AF
100
AcDbEntity
  8
2_Fin
  6
ByLayer
 62
  256
370
   18
100
AcDbLine
 10
222.8213251035384
 20
51.42228524794712
 11
302.336642820667
 21
51.42228524794712
  0
MTEXT
  5
1B0
100
AcDbEntity
  8
text
  6
ByLayer
 62
  256
370
   18
100
AcDbMText
 10
323.7172209581431
 20
63.82242076262516
 30
0
 40
3
 41
7.14286
 71
    1
 72
    1
  1
Ech
  7
romans
210
0
220
0
230
1
 50
0
 73
    2
 44
1
  0
LINE
  5
1B1
100
AcDbEntity
  8
2_Fin
  6
ByLayer
 62
  256
370
   18
100
AcDbLine
 10
321.76319346745
 20
11.19394701329325
 11
321.76319346745
 21
66.03698525207724
  0
LINE
  5
1B2
100
AcDbEntity
  8
2_Fin
  6
ByLayer
 62
  256
370
   18
100
AcDbLine
 10
321.76319346745
 20
59.26302328434146
 11
409.8246990480153
 21
59.26302328434146
  0
MTEXT
  5
1B3
100
AcDbEntity
  8
text
  6
ByLayer
 62
  256
370
   18
100
AcDbMText
 10
323.3264154600045
 20
58.35114378868472
 30
0
 40
3
 41
16.000001
 71
    1
 72
    1
  1
Matière
  7
romans
210
0
220
0
230
1
 50
0
 73
    2
 44
1
  0
LINE
  5
1B4
100
AcDbEntity
  8
2_Fin
  6
ByLayer
 62
  256
370
   18
100
AcDbLine
 10
321.8934619668295
 20
53.53120931164194
 11
409.8246990480153
 21
53.53120931164194
  0
LINE
  5
1B5
100
AcDbEntity
  8
2_Fin
  6
ByLayer
 62
  256
370
   30
100
AcDbLine
 10
321.76319346745
 20
27.86831493387365
 11
409.9549675473948
 21
27.86831493387365
  0
LINE
  5
1B6
100
AcDbEntity
  8
2_Fin
  6
ByLayer
 62
  256
370
   30
100
AcDbLine
 10
388.069859651633
 20
16.14414998971556
 11
388.4606651497716
 21
16.14414998971556
  0
LINE
  5
1B7
100
AcDbEntity
  8
2_Fin
  6
ByLayer
 62
  256
370
   30
100
AcDbLine
 10
321.8934619668295
 20
16.14414998971556
 11
409.8246990480153
 21
16.14414998971556
  0
LINE
  5
1B8
100
AcDbEntity
  8
2_Fin
  6
ByLayer
 62
  256
370
   30
100
AcDbLine
 10
399.7499901734657
 20
16.14414998971556
 11
399.6926536860628
 21
16.14414998971556
  0
LINE
  5
1B9
100
AcDbEntity
  8
2_Fin
  6
ByLayer
 62
  256
370
   30
100
AcDbLine
 10
399.6926536860628
 20
16.14414998971556
 11
399.6926536860628
 21
27.67887517949426
  0
MTEXT
  5
1BA
100
AcDbEntity
  8
text
  6
ByLayer
 62
  256
370
   30
100
AcDbMText
 10
323.5273344034894
 20
22.28022291730899
 30
0
 40
5
 41
6.933333333333334
 71
    1
 72
    1
  1
N%%D
  7
romans
210
0
220
0
230
1
 50
0
 73
    2
 44
1
  0
MTEXT
  5
1BB
100
AcDbEntity
  8
text
  6
ByLayer
 62
  256
370
   30
100
AcDbMText
 10
322.6457885331801
 20
15.44824242241241
 30
0
 40
3
 41
27.535722
 71
    1
 72
    1
  1
Dessiné par:
  7
romans
210
0
220
0
230
1
 50
0
 73
    2
 44
1
  0
LINE
  5
1BC
100
AcDbEntity
  8
4_Traits forts
  6
ByLayer
 62
  256
370
   -1
100
AcDbLine
 10
358.0009032125338
 20
66.15283556231003
 11
358.0009032125338
 21
59.25946037594231
  0
LINE
  5
1BD
100
AcDbEntity
  8
4_Traits forts
  6
ByLayer
 62
  256
370
   35
100
AcDbLine
 10
338
 20
98
 11
338
 21
95
  0
LINE
  5
1BE
100
AcDbEntity
  8
4_Traits forts
  6
ByLayer
 62
  256
370
   35
100
AcDbLine
 10
338.0535399130246
 20
97.82877832193873
 11
338.0535399130246
 21
94.68683215685456
  0
LINE
  5
1BF
100
AcDbEntity
  8
4_Traits forts
  6
ByLayer
 62
  256
370
   35
100
AcDbLine
 10
342.1951962215446
 20
97.82877832193873
 11
342.1951962215446
 21
94.46577858088601
  0
LINE
  5
1C0
100
AcDbEntity
  8
4_Traits forts
  6
ByLayer
 62
  256
370
   35
100
AcDbLine
 10
345.9798131931233
 20
97.75737045455045
 11
345.9798131931233
 21
94.31791209924729
  0
LINE
  5
1C1
100
AcDbEntity
  8
4_Traits forts
  6
ByLayer
 62
  256
370
   35
100
AcDbLine
 10
350.1928773690316
 20
97.82877832193873
 11
350.1928773690316
 21
94.02735717851293
  0
LINE
  5
1C2
100
AcDbEntity
  8
4_Traits forts
  6
ByLayer
 62
  256
370
   35
100
AcDbLine
 10
353.9774943406102
 20
97.75737045455045
 11
353.9774943406102
 21
94.18626307785632
  0
LINE
  5
1C3
100
AcDbEntity
  8
4_Traits forts
  6
ByLayer
 62
  256
370
   35
100
AcDbLine
 10
358.047742781742
 20
97.68596258716217
 11
358.047742781742
 21
94.10914828333276
  0
LINE
  5
1C4
100
AcDbEntity
  8
4_Traits forts
  6
ByLayer
 62
  256
370
   35
100
AcDbLine
 10
362.1179912228737
 20
97.75737045455045
 11
362.1179912228737
 21
94.24674588336885
  0
LINE
  5
1C5
100
AcDbEntity
  8
4_Traits forts
  6
ByLayer
 62
  256
370
   35
100
AcDbLine
 10
370
 20
98
 11
370
 21
95
  0
LINE
  5
1C6
100
AcDbEntity
  8
4_Traits forts
  6
ByLayer
 62
  256
370
   35
100
AcDbLine
 10
370.0535399130246
 20
97.82877832193873
 11
370.0535399130246
 21
94.68683215685456
  0
LINE
  5
1C7
100
AcDbEntity
  8
4_Traits forts
  6
ByLayer
 62
  256
370
   35
100
AcDbLine
 10
374.1951962215446
 20
97.82877832193873
 11
374.1951962215446
 21
94.46577858088601
  0
LINE
  5
1C8
100
AcDbEntity
  8
4_Traits forts
  6
ByLayer
 62
  256
370
   35
100
AcDbLine
 10
377.9798131931233
 20
97.75737045455045
 11
377.9798131931233
 21
94.31791209924729
  0
LINE
  5
1C9
100
AcDbEntity
  8
4_Traits forts
  6
ByLayer
 62
  256
370
   35
100
AcDbLine
 10
382.1928773690316
 20
97.82877832193873
 11
382.1928773690316
 21
94.02735717851293
  0
LINE
  5
1CA
100
AcDbEntity
  8
4_Traits forts
  6
ByLayer
 62
  256
370
   35
100
AcDbLine
 10
385.9774943406102
 20
97.75737045455045
 11
385.9774943406102
 21
94.18626307785632
  0
LINE
  5
1CB
100
AcDbEntity
  8
4_Traits forts
  6
ByLayer
 62
  256
370
   35
100
AcDbLine
 10
390.047742781742
 20
97.68596258716217
 11
390.047742781742
 21
94.10914828333276
  0
LINE
  5
1CC
100
AcDbEntity
  8
4_Traits forts
  6
ByLayer
 62
  256
370
   35
100
AcDbLine
 10
394.1179912228737
 20
97.75737045455045
 11
394.1179912228737
 21
94.24674588336885
  0
INSERT
  5
1CD
100
AcDbEntity
  8
0
  6
ByLayer
 62
  256
370
   35
100
AcDbBlockReference
  2
k_Purg
 10
366
 20
110
 30
0
 41
1
 42
1
 43
0
 50
270.179
 70
    1
 71
    1
 44
0
 45
0
  0
LINE
  5
1CE
100
AcDbEntity
  8
0
  6
ByLayer
 62
  256
370
   35
100
AcDbLine
 10
366
 20
118
 11
366
 21
102.6964672572206
  0
LWPOLYLINE
  5
1CF
100
AcDbEntity
  8
4_Traits forts
  6
ByLayer
 62
  256
370
   35
100
AcDbPolyline
 90
    4
 70
    1
 43
0
 10
337
 20
98
 10
395
 20
98
 10
395
 20
102
 10
337
 20
102
  0
LINE
  5
1D0
100
AcDbEntity
  8
4_Traits forts
  6
ByLayer
 62
  256
370
   35
100
AcDbLine
 10
366
 20
102.6964672572206
 11
366
 21
101.9998229234808
  0
LINE
  5
1D1
100
AcDbEntity
  8
4_Traits forts
  6
ByLayer
 62
  256
370
   35
100
AcDbLine
 10
301.0044430924834
 20
108.6500407898071
 11
301.0044430924834
 21
105.6500407898071
  0
LINE
  5
1D2
100
AcDbEntity
  8
4_Traits forts
  6
ByLayer
 62
  256
370
   35
100
AcDbLine
 10
301.0579830055079
 20
108.4788191117458
 11
301.0579830055079
 21
105.3368729466617
  0
LINE
  5
1D3
100
AcDbEntity
  8
4_Traits forts
  6
ByLayer
 62
  256
370
   35
100
AcDbLine
 10
305.199639314028
 20
108.4788191117458
 11
305.199639314028
 21
105.1158193706931
  0
LINE
  5
1D4
100
AcDbEntity
  8
4_Traits forts
  6
ByLayer
 62
  256
370
   35
100
AcDbLine
 10
308.9842562856066
 20
108.4074112443576
 11
308.9842562856066
 21
104.9679528890544
  0
LINE
  5
1D5
100
AcDbEntity
  8
4_Traits forts
  6
ByLayer
 62
  256
370
   35
100
AcDbLine
 10
313.1973204615149
 20
108.4788191117458
 11
313.1973204615149
 21
104.67739796832
  0
LINE
  5
1D6
100
AcDbEntity
  8
4_Traits forts
  6
ByLayer
 62
  256
370
   35
100
AcDbLine
 10
316.9819374330936
 20
108.4074112443576
 11
316.9819374330936
 21
104.8363038676634
  0
LINE
  5
1D7
100
AcDbEntity
  8
4_Traits forts
  6
ByLayer
 62
  256
370
   35
100
AcDbLine
 10
321.0521858742254
 20
108.3360033769693
 11
321.0521858742254
 21
104.7591890731399
  0
LINE
  5
1D8
100
AcDbEntity
  8
4_Traits forts
  6
ByLayer
 62
  256
370
   35
100
AcDbLine
 10
325.1224343153571
 20
108.4074112443576
 11
325.1224343153571
 21
104.896786673176
  0
LINE
  5
1D9
100
AcDbEntity
  8
4_Traits forts
  6
ByLayer
 62
  256
370
   35
100
AcDbLine
 10
333.0044430924834
 20
108.6500407898071
 11
333.0044430924834
 21
105.6500407898071
  0
LINE
  5
1DA
100
AcDbEntity
  8
4_Traits forts
  6
ByLayer
 62
  256
370
   35
100
AcDbLine
 10
333.0579830055079
 20
108.4788191117458
 11
333.0579830055079
 21
105.3368729466617
  0
LINE
  5
1DB
100
AcDbEntity
  8
4_Traits forts
  6
ByLayer
 62
  256
370
   35
100
AcDbLine
 10
337.199639314028
 20
108.4788191117458
 11
337.199639314028
 21
105.1158193706931
  0
LINE
  5
1DC
100
AcDbEntity
  8
4_Traits forts
  6
ByLayer
 62
  256
370
   35
100
AcDbLine
 10
340.9842562856066
 20
108.4074112443576
 11
340.9842562856066
 21
104.9679528890544
  0
LINE
  5
1DD
100
AcDbEntity
  8
4_Traits forts
  6
ByLayer
 62
  256
370
   35
100
AcDbLine
 10
345.1973204615149
 20
108.4788191117458
 11
345.1973204615149
 21
104.67739796832
  0
LINE
  5
1DE
100
AcDbEntity
  8
4_Traits forts
  6
ByLayer
 62
  256
370
   35
100
AcDbLine
 10
348.9819374330936
 20
108.4074112443576
 11
348.9819374330936
 21
104.8363038676634
  0
LINE
  5
1DF
100
AcDbEntity
  8
4_Traits forts
  6
ByLayer
 62
  256
370
   35
100
AcDbLine
 10
353.0521858742254
 20
108.3360033769693
 11
353.0521858742254
 21
104.7591890731399
  0
LINE
  5
1E0
100
AcDbEntity
  8
4_Traits forts
  6
ByLayer
 62
  256
370
   35
100
AcDbLine
 10
357.1224343153571
 20
108.4074112443576
 11
357.1224343153571
 21
104.896786673176
  0
INSERT
  5
1E1
100
AcDbEntity
  8
0
  6
ByLayer
 62
  256
370
   35
100
AcDbBlockReference
  2
k_Purg
 10
329.0044430924834
 20
120.6500407898071
 30
0
 41
1
 42
1
 43
0
 50
270.179
 70
    1
 71
    1
 44
0
 45
0
  0
LINE
  5
1E2
100
AcDbEntity
  8
0
  6
ByLayer
 62
  256
370
   35
100
AcDbLine
 10
329.0044430924834
 20
128.6500407898071
 11
329.0044430924834
 21
113.3465080470277
  0
LWPOLYLINE
  5
1E3
100
AcDbEntity
  8
4_Traits forts
  6
ByLayer
 62
  256
370
   35
100
AcDbPolyline
 90
    4
 70
    1
 43
0
 10
300.0044430924834
 20
108.6500407898071
 10
358.0044430924834
 20
108.6500407898071
 10
358.0044430924834
 20
112.6500407898071
 10
300.0044430924834
 20
112.6500407898071
  0
LINE
  5
1E4
100
AcDbEntity
  8
4_Traits forts
  6
ByLayer
 62
  256
370
   35
100
AcDbLine
 10
329.0044430924834
 20
113.3465080470277
 11
329.0044430924834
 21
112.6498637132879
  0
LINE
  5
1E5
100
AcDbEntity
  8
4_Traits forts
  6
ByLayer
 62
  256
370
   40
100
AcDbLine
 10
301.0579830055079
 20
105.3368729466617
 11
301.0579830055079
 21
89.33948262161825
  0
LINE
  5
1E6
100
AcDbEntity
  8
4_Traits forts
  6
ByLayer
 62
  256
370
   40
100
AcDbLine
 10
338
 20
95
 11
338
 21
89.35592650591502
  0
SPLINE
  5
1E7
100
AcDbEntity
  8
4_Traits forts
  6
ByLayer
 62
  256
370
   40
100
AcDbSpline
210
0
220
0
230
0
 70
    8
 71
    2
 72
    9
 73
    6
 74
    0
 42
1e-007
 43
1e-007
 40
0
 40
0
 40
0
 40
0.25
 40
0.5
 40
0.75
 40
1
 40
1
 40
1
 10
301.0734306463064
 20
83.84364250222966
 30
0
 10
300.7793037096424
 20
78.48067484356667
 30
0
 10
306.8300743905872
 20
69.35765941709987
 30
0
 10
318.9532581277209
 20
66.74212593933174
 30
0
 10
336.4897516454142
 20
71.34837251014834
 30
0
 10
337.7944244489747
 20
83.84364250222966
 30
0
  0
LINE
  5
1E8
100
AcDbEntity
  8
01_Axe
  6
ByLayer
 62
  256
370
   40
100
AcDbLine
 10
264.9202127659577
 20
89.18693009118549
 11
372.037460697024
 21
89.18693009118546
  0
LINE
  5
1E9
100
AcDbEntity
  8
01_Axe
  6
ByLayer
 62
  256
370
   40
100
AcDbLine
 10
264.9202127659577
 20
84.12993920972652
 11
368.9647474941549
 21
84.12993920972649
  0
LINE
  5
1EA
100
AcDbEntity
  8
0
  6
ByLayer
 62
  256
370
   35
100
AcDbLine
 10
366
 20
118
 11
366
 21
152.1641698460215
  0
INSERT
  5
1EB
100
AcDbEntity
  8
0
  6
ByLayer
 62
  256
370
   35
100
AcDbBlockReference
  2
b_Van-0
 10
366
 20
149.8928434923467
 30
0
 41
1
 42
1
 43
0
 50
270.716
 70
    1
 71
    1
 44
0
 45
0
  0
INSERT
  5
1EC
100
AcDbEntity
  8
0
  6
ByLayer
 62
  256
370
   35
100
AcDbBlockReference
  2
b_Van
 10
366.0600303951371
 20
151.2530756210976
 30
0
 41
1
 42
1
 43
0
 50
0
 70
    1
 71
    1
 44
0
 45
0
  0
INSERT
  5
1ED
100
AcDbEntity
  8
0
  6
ByLayer
 62
  256
370
   35
100
AcDbBlockReference
  2
b_Van-1
 10
366.2747529257597
 20
164.5793140163443
 30
0
 41
1
 42
1
 43
0
 50
269.174
 70
    1
 71
    1
 44
0
 45
0
  0
LINE
  5
1EE
100
AcDbEntity
  8
0
  6
ByLayer
 62
  256
370
   35
100
AcDbLine
 10
366.0772213771068
 20
163.2868214267932
 11
366.0772213771068
 21
173.1023155693721
  0
INSERT
  5
1EF
100
AcDbEntity
  8
0
  6
ByLayer
 62
  256
370
   35
100
AcDbBlockReference
  2
f_VaseExp
 10
366.0772213771068
 20
173.1023155693721
 30
0
 41
1
 42
1
 43
0
 50
0
 70
    1
 71
    1
 44
0
 45
0
  0
INSERT
  5
1F0
100
AcDbEntity
  8
0
  6
ByLayer
 62
  256
370
   35
100
AcDbBlockReference
  2
k_Purg-0
 10
366.1750082940568
 20
199.3950144715429
 30
0
 41
1
 42
1
 43
0
 50
0
 70
    1
 71
    1
 44
0
 45
0
  0
INSERT
  5
1F1
100
AcDbEntity
  8
0
  6
ByLayer
 62
  256
370
   35
100
AcDbBlockReference
  2
j_soupap
 10
355.8128242681232
 20
194.5084756901227
 30
0
 41
1
 42
1
 43
0
 50
0
 70
    1
 71
    1
 44
0
 45
0
  0
LINE
  5
1F2
100
AcDbEntity
  8
0
  6
ByLayer
 62
  256
370
   35
100
AcDbLine
 10
360.9347067787305
 20
199.3218503447505
 11
371.6401858715033
 21
199.3218503447505
  0
INSERT
  5
1F3
100
AcDbEntity
  8
0
  6
ByLayer
 62
  256
370
   35
100
AcDbBlockReference
  2
g_Mano
 10
378.5128980900826
 20
199.6271197872312
 30
0
 41
1
 42
1
 43
0
 50
0
 70
    1
 71
    1
 44
0
 45
0
  0
LINE
  5
1F4
100
AcDbEntity
  8
0
  6
ByLayer
 62
  256
370
   35
100
AcDbLine
 10
371.6401858715033
 20
199.3218503447505
 11
379.1892500444015
 21
199.3218503447505
  0
LINE
  5
1F5
100
AcDbEntity
  8
0
  6
ByLayer
 62
  256
370
   35
100
AcDbLine
 10
366.0772213771068
 20
173.1023155693721
 11
241.6446740464993
 21
173.1023155693721
  0
LWPOLYLINE
  5
1F6
100
AcDbEntity
  8
0
  6
ByLayer
 62
  256
370
   35
100
AcDbPolyline
 90
    4
 70
    1
 43
0
 10
240
 20
230
 10
200
 20
230
 10
200
 20
150
 10
240
 20
150
  0
LINE
  5
1F7
100
AcDbEntity
  8
0
  6
ByLayer
 62
  256
370
   35
100
AcDbLine
 10
200
 20
220
 11
240
 21
220
  0
INSERT
  5
1F8
100
AcDbEntity
  8
0
  6
ByLayer
 62
  256
370
   35
100
AcDbBlockReference
  2
l_Tamis-1
 10
300
 20
160
 30
0
 41
1
 42
1
 43
0
 50
0
 70
    1
 71
    1
 44
0
 45
0
  0
INSERT
  5
1F9
100
AcDbEntity
  8
0
  6
ByLayer
 62
  256
370
   35
100
AcDbBlockReference
  2
e_Circul-0
 10
270
 20
160
 30
0
 41
1
 42
1
 43
0
 50
0
 70
    1
 71
    1
 44
0
 45
0
  0
LINE
  5
1FA
100
AcDbEntity
  8
0
  6
ByLayer
 62
  256
370
   35
100
AcDbLine
 10
240
 20
160
 11
257
 21
160
  0
LINE
  5
1FB
100
AcDbEntity
  8
0
  6
ByLayer
 62
  256
370
   35
100
AcDbLine
 10
270
 20
160
 11
285
 21
160
  0
LINE
  5
1FC
100
AcDbEntity
  8
0
  6
ByLayer
 62
  256
370
   35
100
AcDbLine
 10
301
 20
160
 11
329
 21
160
  0
LINE
  5
1FD
100
AcDbEntity
  8
0
  6
ByLayer
 62
  256
370
   35
100
AcDbLine
 10
329
 20
160
 11
329
 21
129
  0
INSERT
  5
1FE
100
AcDbEntity
  8
0
  6
ByLayer
 62
  256
370
   35
100
AcDbBlockReference
  2
i_Flèch
 10
282
 20
152
 30
0
 41
1
 42
1
 43
0
 50
0
 70
    1
 71
    1
 44
0
 45
0
  0
INSERT
  5
1FF
100
AcDbEntity
  8
0
  6
ByLayer
 62
  256
370
   35
100
AcDbBlockReference
  2
i_Flèch-0
 10
320
 20
136
 30
0
 41
1
 42
1
 43
0
 50
270
 70
    1
 71
    1
 44
0
 45
0
  0
INSERT
  5
200
100
AcDbEntity
  8
0
  6
ByLayer
 62
  256
370
   35
100
AcDbBlockReference
  2
f_VaseExp
 10
330
 20
238.2057119844388
 30
0
 41
1
 42
1
 43
0
 50
0
 70
    1
 71
    1
 44
0
 45
0
  0
INSERT
  5
201
100
AcDbEntity
  8
0
  6
ByLayer
 62
  256
370
   35
100
AcDbBlockReference
  2
k_Purg-0
 10
330.09778691695
 20
264.4984108866096
 30
0
 41
1
 42
1
 43
0
 50
0
 70
    1
 71
    1
 44
0
 45
0
  0
INSERT
  5
202
100
AcDbEntity
  8
0
  6
ByLayer
 62
  256
370
   35
100
AcDbBlockReference
  2
j_soupap
 10
319.7356028910164
 20
259.6118721051894
 30
0
 41
1
 42
1
 43
0
 50
0
 70
    1
 71
    1
 44
0
 45
0
  0
LINE
  5
203
100
AcDbEntity
  8
0
  6
ByLayer
 62
  256
370
   35
100
AcDbLine
 10
324.8574854016237
 20
264.4252467598172
 11
335.5629644943965
 21
264.4252467598172
  0
INSERT
  5
204
100
AcDbEntity
  8
0
  6
ByLayer
 62
  256
370
   35
100
AcDbBlockReference
  2
g_Mano
 10
342.4356767129758
 20
264.7305162022978
 30
0
 41
1
 42
1
 43
0
 50
0
 70
    1
 71
    1
 44
0
 45
0
  0
LINE
  5
205
100
AcDbEntity
  8
0
  6
ByLayer
 62
  256
370
   35
100
AcDbLine
 10
335.5629644943965
 20
264.4252467598172
 11
343.1120286672947
 21
264.4252467598172
  0
ARC
  5
206
100
AcDbEntity
  8
4_Traits forts
  6
ByLayer
 62
  256
370
   35
100
AcDbCircle
 10
130
 20
235
 40
25
100
AcDbArc
 50
36.86989764584402
 51
143.130102354156
  0
ARC
  5
207
100
AcDbEntity
  8
4_Traits forts
  6
ByLayer
 62
  256
370
   35
100
AcDbCircle
 10
130
 20
195
 40
25
100
AcDbArc
 50
216.869897645844
 51
323.130102354156
  0
LINE
  5
208
100
AcDbEntity
  8
4_Traits forts
  6
ByLayer
 62
  256
370
   35
100
AcDbLine
 10
110
 20
250
 11
110
 21
180
  0
LINE
  5
209
100
AcDbEntity
  8
4_Traits forts
  6
ByLayer
 62
  256
370
   35
100
AcDbLine
 10
150
 20
250
 11
150
 21
180
  0
LWPOLYLINE
  5
20A
100
AcDbEntity
  8
4_Traits forts
  6
ByLayer
 62
  256
370
   35
100
AcDbPolyline
 90
    4
 70
    1
 43
0
 10
110
 20
239
 10
107
 20
239
 10
107
 20
234
 10
110
 20
234
  0
LWPOLYLINE
  5
20B
100
AcDbEntity
  8
4_Traits forts
  6
ByLayer
 62
  256
370
   35
100
AcDbPolyline
 90
    4
 70
    1
 43
0
 10
153
 20
239
 10
150
 20
239
 10
150
 20
234
 10
153
 20
234
  0
LWPOLYLINE
  5
20C
100
AcDbEntity
  8
4_Traits forts
  6
ByLayer
 62
  256
370
   35
100
AcDbPolyline
 90
    4
 70
    1
 43
0
 10
153
 20
190
 10
150
 20
190
 10
150
 20
185
 10
153
 20
185
  0
LWPOLYLINE
  5
20D
100
AcDbEntity
  8
4_Traits forts
  6
ByLayer
 62
  256
370
   35
100
AcDbPolyline
 90
    4
 70
    1
 43
0
 10
153
 20
206
 10
150
 20
206
 10
150
 20
201
 10
153
 20
201
  0
LWPOLYLINE
  5
20E
100
AcDbEntity
  8
4_Traits forts
  6
ByLayer
 62
  256
370
   35
100
AcDbPolyline
 90
    4
 70
    1
 43
0
 10
153
 20
222
 10
150
 20
222
 10
150
 20
217
 10
153
 20
217
  0
LWPOLYLINE
  5
20F
100
AcDbEntity
  8
4_Traits forts
  6
ByLayer
 62
  256
370
   35
100
AcDbPolyline
 90
    4
 70
    1
 43
0
 10
110
 20
222
 10
107
 20
222
 10
107
 20
217
 10
110
 20
217
  0
LWPOLYLINE
  5
210
100
AcDbEntity
  8
4_Traits forts
  6
ByLayer
 62
  256
370
   35
100
AcDbPolyline
 90
    4
 70
    1
 43
0
 10
110
 20
206
 10
107
 20
206
 10
107
 20
201
 10
110
 20
201
  0
LWPOLYLINE
  5
211
100
AcDbEntity
  8
4_Traits forts
  6
ByLayer
 62
  256
370
   35
100
AcDbPolyline
 90
    4
 70
    1
 43
0
 10
110
 20
190
 10
107
 20
190
 10
107
 20
185
 10
110
 20
185
  0
LINE
  5
212
100
AcDbEntity
  8
4_Traits forts
  6
ByLayer
 62
  256
370
   35
100
AcDbLine
 10
153
 20
218.8509930437053
 11
182.4414969959311
 21
218.8509930437053
  0
LINE
  5
213
100
AcDbEntity
  8
4_Traits forts
  6
ByLayer
 62
  256
370
   35
100
AcDbLine
 10
182.4414969959311
 20
218.8509930437053
 11
182.4414969959311
 21
238.0970758450395
  0
LINE
  5
214
100
AcDbEntity
  8
4_Traits forts
  6
ByLayer
 62
  256
370
   35
100
AcDbLine
 10
182.4414969959311
 20
238.0970758450395
 11
329.9985218346408
 21
238.0970758450394
  0
INSERT
  5
215
100
AcDbEntity
  8
0
  6
ByLayer
 62
  256
370
   35
100
AcDbBlockReference
  2
e_Circul-1
 10
166.2282969137185
 20
196.90947421929
 30
0
 41
1
 42
1
 43
0
 50
269.576
 70
    1
 71
    1
 44
0
 45
0
  0
INSERT
  5
216
100
AcDbEntity
  8
0
  6
ByLayer
 62
  256
370
   35
100
AcDbBlockReference
  2
b_Van-2
 10
166.3557855855266
 20
223.6524945151796
 30
0
 41
1
 42
1
 43
0
 50
0
 70
    1
 71
    1
 44
0
 45
0
  0
LINE
  5
217
100
AcDbEntity
  8
0
  6
ByLayer
 62
  256
370
   35
100
AcDbLine
 10
153.1167732949628
 20
236.1318913464487
 11
166.3575644249422
 21
236.1318913464487
  0
LINE
  5
218
100
AcDbEntity
  8
0
  6
ByLayer
 62
  256
370
   35
100
AcDbLine
 10
166.3557855855266
 20
223.6524945151796
 11
166.3557855855266
 21
221.1354732048838
  0
ARC
  5
219
100
AcDbEntity
  8
0
  6
ByLayer
 62
  256
370
   35
100
AcDbCircle
 10
166.2472690913416
 20
218.7692522768569
 40
2.061813389514043
100
AcDbArc
 50
86.98721249581655
 51
270
  0
LINE
  5
21A
100
AcDbEntity
  8
0
  6
ByLayer
 62
  256
370
   35
100
AcDbLine
 10
166.2472690913416
 20
216.7074388873428
 11
166.3318987125216
 21
210.9090908807306
  0
LINE
  5
21B
100
AcDbEntity
  8
0
  6
ByLayer
 62
  256
370
   35
100
AcDbLine
 10
166.2282969137185
 20
196.90947421929
 11
166.2282969137185
 21
192.6167352533868
  0
LINE
  5
21C
100
AcDbEntity
  8
0
  6
ByLayer
 62
  256
370
   35
100
AcDbLine
 10
166.2282969137185
 20
192.6167352533868
 11
200.0015694692847
 21
192.6167352533868
  0
INSERT
  5
21D
100
AcDbEntity
  8
0
  6
ByLayer
 62
  256
370
   35
100
AcDbBlockReference
  2
b_Van-3
 10
166.0963277453662
 20
167.6118051882983
 30
0
 41
1
 42
1
 43
0
 50
0
 70
    1
 71
    1
 44
0
 45
0
  0
LINE
  5
21E
100
AcDbEntity
  8
0
  6
ByLayer
 62
  256
370
   35
100
AcDbLine
 10
152.9969763149913
 20
187.4055740417334
 11
166.1286368872118
 21
187.4055740417334
  0
LINE
  5
21F
100
AcDbEntity
  8
0
  6
ByLayer
 62
  256
370
   35
100
AcDbLine
 10
166.1286368872118
 20
187.4055740417334
 11
166.1286368872118
 21
179.1318467850984
  0
LINE
  5
220
100
AcDbEntity
  8
0
  6
ByLayer
 62
  256
370
   35
100
AcDbLine
 10
166.0963277453662
 20
167.6118051882983
 11
166.0963277453662
 21
163.1245516600117
  0
LINE
  5
221
100
AcDbEntity
  8
0
  6
ByLayer
 62
  256
370
   35
100
AcDbLine
 10
166.0963277453662
 20
163.1245516600117
 11
200.0026623115251
 21
163.1245516600117
  0
ENDSEC
  0
SECTION
  2
OBJECTS
  0
DICTIONARY
  5
C
330
0
100
AcDbDictionary
281
    1
  3
ACAD_GROUP
350
D
  0
DICTIONARY
  5
D
330
C
100
AcDbDictionary
281
    1
  0
ENDSEC
  0
EOF
