999
dxfrw 0.6.3
  0
SECTION
  2
HEADER
  9
$ACADVER
  1
AC1021
  9
$DWGCODEPAGE
  3
ANSI_1252
  9
$INSBASE
 10
0
 20
0
 30
0
  9
$EXTMIN
 10
0.6671149041301589
 20
-1.33422980826034
 30
0
  9
$EXTMAX
 10
212.9095675190161
 20
296.8499642231499
 30
0
  9
$LIMMIN
 10
0
 20
0
  9
$LIMMAX
 10
420
 20
297
  9
$ORTHOMODE
 70
    0
  9
$REGENMODE
 70
    1
  9
$FILLMODE
 70
    1
  9
$QTEXTMODE
 70
    0
  9
$MIRRTEXT
 70
    0
  9
$LTSCALE
 40
1
  9
$ATTMODE
 70
    0
  9
$TEXTSIZE
 40
2.5
  9
$TRACEWID
 40
15.68
  9
$TEXTSTYLE
  7
STANDARD
  9
$CLAYER
  8
4_Traits forts
  9
$CELTYPE
  6
BYLAYER
  9
$CECOLOR
 62
  256
  9
$CELTSCALE
 40
1
  9
$DISPSILH
 70
    0
  9
$DIMSCALE
 40
2
  9
$DIMASZ
 40
2
  9
$DIMEXO
 40
0.625
  9
$DIMDLI
 40
3.75
  9
$DIMRND
 40
0
  9
$DIMDLE
 40
0
  9
$DIMEXE
 40
1.25
  9
$DIMTP
 40
0
  9
$DIMTM
 40
0
  9
$DIMTXT
 40
2.5
  9
$DIMCEN
 40
2.5
  9
$DIMTSZ
 40
0
  9
$DIMTOL
 70
    0
  9
$DIMLIM
 70
    0
  9
$DIMTIH
 70
    0
  9
$DIMTOH
 70
    0
  9
$DIMSE1
 70
    0
  9
$DIMSE2
 70
    0
  9
$DIMTAD
 70
    1
  9
$DIMZIN
 70
    8
  9
$DIMBLK
  1

  9
$DIMASO
 70
    1
  9
$DIMSHO
 70
    1
  9
$DIMPOST
  1

  9
$DIMAPOST
  1

  9
$DIMALT
 70
    0
  9
$DIMALTD
 70
    3
  9
$DIMALTF
 40
0.03937
  9
$DIMLFAC
 40
0.5
  9
$DIMTOFL
 70
    1
  9
$DIMTVP
 40
0
  9
$DIMTIX
 70
    0
  9
$DIMSOXD
 70
    0
  9
$DIMSAH
 70
    0
  9
$DIMBLK1
  1

  9
$DIMBLK2
  1

  9
$DIMSTYLE
  2
STANDARD
  9
$DIMCLRD
 70
    0
  9
$DIMCLRE
 70
    0
  9
$DIMCLRT
 70
    0
  9
$DIMTFAC
 40
1
  9
$DIMGAP
 40
0.625
  9
$DIMJUST
 70
    0
  9
$DIMSD1
 70
    0
  9
$DIMSD2
 70
    0
  9
$DIMTOLJ
 70
    0
  9
$DIMTZIN
 70
    8
  9
$DIMALTZ
 70
    0
  9
$DIMALTTZ
 70
    0
  9
$DIMUPT
 70
    0
  9
$DIMDEC
 70
    2
  9
$DIMTDEC
 70
    2
  9
$DIMALTU
 70
    2
  9
$DIMALTTD
 70
    3
  9
$DIMTXSTY
  7
standard
  9
$DIMAUNIT
 70
    0
  9
$DIMADEC
 70
    0
  9
$DIMALTRND
 40
0
  9
$DIMAZIN
 70
    0
  9
$DIMDSEP
 70
   44
  9
$DIMATFIT
 70
    3
  9
$DIMFRAC
 70
    0
  9
$DIMLDRBLK
  1
STANDARD
  9
$DIMLUNIT
 70
    2
  9
$DIMLWD
 70
   -2
  9
$DIMLWE
 70
   -2
  9
$DIMTMOVE
 70
    0
  9
$DIMFXL
 40
1
  9
$DIMFXLON
 70
    0
  9
$DIMJOGANG
 40
0.7854
  9
$DIMTFILL
 70
    0
  9
$DIMTFILLCLR
 70
    0
  9
$DIMARCSYM
 70
    0
  9
$DIMLTYPE
  6

  9
$DIMLTEX1
  6

  9
$DIMLTEX2
  6

  9
$LUNITS
 70
    2
  9
$LUPREC
 70
    2
  9
$SKETCHINC
 40
1
  9
$FILLETRAD
 40
0
  9
$AUNITS
 70
    0
  9
$AUPREC
 70
    2
  9
$MENU
  1
.
  9
$ELEVATION
 40
0
  9
$PELEVATION
 40
0
  9
$THICKNESS
 40
0
  9
$LIMCHECK
 70
    0
  9
$CHAMFERA
 40
0
  9
$CHAMFERB
 40
0
  9
$CHAMFERC
 40
0
  9
$CHAMFERD
 40
0
  9
$SKPOLY
 70
    0
  9
$USRTIMER
 70
    1
  9
$ANGBASE
 50
0
  9
$ANGDIR
 70
    0
  9
$PDMODE
 70
   34
  9
$PDSIZE
 40
0
  9
$PLINEWID
 40
0
  9
$SPLFRAME
 70
    0
  9
$SPLINETYPE
 70
    2
  9
$SPLINESEGS
 70
    8
  9
$HANDSEED
  5
20000
  9
$SURFTAB1
 70
    6
  9
$SURFTAB2
 70
    6
  9
$SURFTYPE
 70
    6
  9
$SURFU
 70
    6
  9
$SURFV
 70
    6
  9
$UCSBASE
  2

  9
$UCSNAME
  2

  9
$UCSORG
 10
0
 20
0
 30
0
  9
$UCSXDIR
 10
1
 20
0
 30
0
  9
$UCSYDIR
 10
0
 20
1
 30
0
  9
$UCSORTHOREF
  2

  9
$UCSORTHOVIEW
 70
    0
  9
$UCSORGTOP
 10
0
 20
0
 30
0
  9
$UCSORGBOTTOM
 10
0
 20
0
 30
0
  9
$UCSORGLEFT
 10
0
 20
0
 30
0
  9
$UCSORGRIGHT
 10
0
 20
0
 30
0
  9
$UCSORGFRONT
 10
0
 20
0
 30
0
  9
$UCSORGBACK
 10
0
 20
0
 30
0
  9
$PUCSBASE
  2

  9
$PUCSNAME
  2

  9
$PUCSORG
 10
0
 20
0
 30
0
  9
$PUCSXDIR
 10
1
 20
0
 30
0
  9
$PUCSYDIR
 10
0
 20
1
 30
0
  9
$PUCSORTHOREF
  2

  9
$PUCSORTHOVIEW
 70
    0
  9
$PUCSORGTOP
 10
0
 20
0
 30
0
  9
$PUCSORGBOTTOM
 10
0
 20
0
 30
0
  9
$PUCSORGLEFT
 10
0
 20
0
 30
0
  9
$PUCSORGRIGHT
 10
0
 20
0
 30
0
  9
$PUCSORGFRONT
 10
0
 20
0
 30
0
  9
$PUCSORGBACK
 10
0
 20
0
 30
0
  9
$USERI1
 70
    0
  9
$USERI2
 70
    0
  9
$USERI3
 70
    0
  9
$USERI4
 70
    0
  9
$USERI5
 70
    0
  9
$USERR1
 40
0
  9
$USERR2
 40
0
  9
$USERR3
 40
0
  9
$USERR4
 40
0
  9
$USERR5
 40
0
  9
$WORLDVIEW
 70
    1
  9
$SHADEDGE
 70
    3
  9
$SHADEDIF
 70
   70
  9
$TILEMODE
 70
    1
  9
$MAXACTVP
 70
   64
  9
$PINSBASE
 10
12.5
 20
83.08928571428567
 30
0
  9
$PLIMCHECK
 70
    0
  9
$PEXTMIN
 10
0
 20
0
 30
0
  9
$PEXTMAX
 10
0
 20
0
 30
0
  9
$GRIDMODE
 70
    1
  9
$SNAPSTYLE
 70
    0
  9
$GRIDUNIT
 10
0.01
 20
0.01
  9
$PLIMMIN
 10
0
 20
0
  9
$PLIMMAX
 10
210
 20
297
  9
$UNITMODE
 70
    0
  9
$VISRETAIN
 70
    1
  9
$PLINEGEN
 70
    0
  9
$PSLTSCALE
 70
    1
  9
$TREEDEPTH
 70
 3020
  9
$CMLSTYLE
  2
Standard
  9
$CMLJUST
 70
    0
  9
$CMLSCALE
 40
20
  9
$PROXYGRAPHICS
 70
    1
  9
$MEASUREMENT
 70
    1
  9
$CELWEIGHT
370
   -1
  9
$ENDCAPS
280
    0
  9
$JOINSTYLE
280
    0
  9
$LWDISPLAY
290
    0
  9
$INSUNITS
 70
    4
  9
$HYPERLINKBASE
  1

  9
$STYLESHEET
  1

  9
$XEDIT
290
    1
  9
$CEPSNTYPE
380
    0
  9
$PSTYLEMODE
290
    1
  9
$EXTNAMES
290
    1
  9
$PSVPSCALE
 40
0.4404762429138385
  9
$OLESTARTUP
290
    0
  9
$SORTENTS
280
  127
  9
$INDEXCTL
280
    0
  9
$HIDETEXT
280
    1
  9
$XCLIPFRAME
290
    0
  9
$HALOGAP
280
    0
  9
$OBSCOLOR
 70
  257
  9
$OBSLTYPE
280
    0
  9
$INTERSECTIONDISPLAY
280
    0
  9
$INTERSECTIONCOLOR
 70
  257
  9
$DIMASSOC
280
    1
  9
$PROJECTNAME
  1

  9
$CAMERADISPLAY
290
    0
  9
$LENSLENGTH
 40
50
  9
$CAMERAHEIGHT
 40
0
  9
$STEPSPERSEC
 40
2
  9
$STEPSIZE
 40
50
  9
$3DDWFPREC
 40
2
  9
$PSOLWIDTH
 40
5
  9
$PSOLHEIGHT
 40
80
  9
$LOFTANG1
 40
1.570796326794897
  9
$LOFTANG2
 40
1.570796326794897
  9
$LOFTMAG1
 40
0
  9
$LOFTMAG2
 40
0
  9
$LOFTPARAM
 70
    7
  9
$LOFTNORMALS
280
    1
  9
$LATITUDE
 40
1
  9
$LONGITUDE
 40
1
  9
$NORTHDIRECTION
 40
0
  9
$TIMEZONE
 70
-8000
  9
$LIGHTGLYPHDISPLAY
280
    1
  9
$TILEMODELIGHTSYNCH
280
    1
  9
$SOLIDHIST
280
    1
  9
$SHOWHIST
280
    1
  9
$DWFFRAME
280
    2
  9
$DGNFRAME
280
    0
  9
$REALWORLDSCALE
290
    1
  9
$INTERFERECOLOR
 62
    1
  9
$CSHADOW
280
    0
  9
$SHADOWPLANELOCATION
 40
0
  0
ENDSEC
  0
SECTION
  2
CLASSES
  0
ENDSEC
  0
SECTION
  2
TABLES
  0
TABLE
  2
VPORT
  5
8
330
0
100
AcDbSymbolTable
 70
    1
  0
VPORT
  5
31
330
2
100
AcDbSymbolTableRecord
100
AcDbViewportTableRecord
  2
*ACTIVE
 70
    0
 10
0
 20
0
 11
1
 21
1
 12
197.6780200048487
 22
135.5166185334444
 13
0
 23
0
 14
10
 24
10
 15
0.01
 25
0.01
 16
0
 26
0
 36
1
 17
0
 27
0
 37
0
 40
276.7492280067881
 41
2.144578313253012
 42
50
 43
0
 44
0
 50
0
 51
0
 71
    0
 72
  100
 73
    1
 74
    3
 75
    0
 76
    1
 77
    0
 78
    0
281
    0
 65
    1
110
0
120
0
130
0
111
1
121
0
131
0
112
0
122
1
132
0
 79
    0
146
0
348
10020
 60
    3
 61
    5
292
1
282
    1
141
0
142
0
 63
  250
421
3358443
  0
ENDTAB
  0
TABLE
  2
LTYPE
  5
5
330
0
100
AcDbSymbolTable
 70
    4
  0
LTYPE
  5
14
330
5
100
AcDbSymbolTableRecord
100
AcDbLinetypeTableRecord
  2
ByBlock
 70
    0
  3

 72
   65
 73
    0
 40
0
  0
LTYPE
  5
15
330
5
100
AcDbSymbolTableRecord
100
AcDbLinetypeTableRecord
  2
ByLayer
 70
    0
  3

 72
   65
 73
    0
 40
0
  0
LTYPE
  5
16
330
5
100
AcDbSymbolTableRecord
100
AcDbLinetypeTableRecord
  2
Continuous
 70
    0
  3
Solid line
 72
   65
 73
    0
 40
0
  0
LTYPE
  5
32
330
5
100
AcDbSymbolTableRecord
100
AcDbLinetypeTableRecord
  2
DOT
 70
    0
  3
Dot . . . . . . . . . . . . . . . . . . . . . .
 72
   65
 73
    2
 40
6.35
 49
0
 74
    0
 49
-6.35
 74
    0
  0
LTYPE
  5
33
330
5
100
AcDbSymbolTableRecord
100
AcDbLinetypeTableRecord
  2
DOTTINY
 70
    0
  3
Dot (.15x) .....................................
 72
   65
 73
    2
 40
0.9525
 49
0
 74
    0
 49
-0.9525
 74
    0
  0
LTYPE
  5
34
330
5
100
AcDbSymbolTableRecord
100
AcDbLinetypeTableRecord
  2
DOT2
 70
    0
  3
Dot (.5x) .....................................
 72
   65
 73
    2
 40
3.175
 49
0
 74
    0
 49
-3.175
 74
    0
  0
LTYPE
  5
35
330
5
100
AcDbSymbolTableRecord
100
AcDbLinetypeTableRecord
  2
DOTX2
 70
    0
  3
Dot (2x) .  .  .  .  .  .  .  .  .  .  .  .  .
 72
   65
 73
    2
 40
12.7
 49
0
 74
    0
 49
-12.7
 74
    0
  0
LTYPE
  5
36
330
5
100
AcDbSymbolTableRecord
100
AcDbLinetypeTableRecord
  2
DASHED
 70
    0
  3
Dashed _ _ _ _ _ _ _ _ _ _ _ _ _ _ _ _ _
 72
   65
 73
    2
 40
19.05
 49
12.7
 74
    0
 49
-6.35
 74
    0
  0
LTYPE
  5
37
330
5
100
AcDbSymbolTableRecord
100
AcDbLinetypeTableRecord
  2
DASHEDTINY
 70
    0
  3
Dashed (.15x) _ _ _ _ _ _ _ _ _ _ _ _ _ _ _ _ _
 72
   65
 73
    2
 40
2.8575
 49
1.905
 74
    0
 49
-0.9525
 74
    0
  0
LTYPE
  5
38
330
5
100
AcDbSymbolTableRecord
100
AcDbLinetypeTableRecord
  2
DASHED2
 70
    0
  3
Dashed (.5x) _ _ _ _ _ _ _ _ _ _ _ _ _ _ _ _ _
 72
   65
 73
    2
 40
9.524999999999999
 49
6.35
 74
    0
 49
-3.175
 74
    0
  0
LTYPE
  5
39
330
5
100
AcDbSymbolTableRecord
100
AcDbLinetypeTableRecord
  2
DASHEDX2
 70
    0
  3
Dashed (2x) ____  ____  ____  ____  ____  ___
 72
   65
 73
    2
 40
38.09999999999999
 49
25.4
 74
    0
 49
-12.7
 74
    0
  0
LTYPE
  5
3A
330
5
100
AcDbSymbolTableRecord
100
AcDbLinetypeTableRecord
  2
DASHDOT
 70
    0
  3
Dash dot __ . __ . __ . __ . __ . __ . __ . __
 72
   65
 73
    4
 40
25.4
 49
12.7
 74
    0
 49
-6.35
 74
    0
 49
0
 74
    0
 49
-6.35
 74
    0
  0
LTYPE
  5
3B
330
5
100
AcDbSymbolTableRecord
100
AcDbLinetypeTableRecord
  2
DASHDOTTINY
 70
    0
  3
Dash dot (.15x) _._._._._._._._._._._._._._._.
 72
   65
 73
    4
 40
3.81
 49
1.905
 74
    0
 49
-0.9525
 74
    0
 49
0
 74
    0
 49
-0.9525
 74
    0
  0
LTYPE
  5
3C
330
5
100
AcDbSymbolTableRecord
100
AcDbLinetypeTableRecord
  2
DASHDOT2
 70
    0
  3
Dash dot (.5x) _._._._._._._._._._._._._._._.
 72
   65
 73
    4
 40
12.7
 49
6.35
 74
    0
 49
-3.175
 74
    0
 49
0
 74
    0
 49
-3.175
 74
    0
  0
LTYPE
  5
3D
330
5
100
AcDbSymbolTableRecord
100
AcDbLinetypeTableRecord
  2
DASHDOTX2
 70
    0
  3
Dash dot (2x) ____  .  ____  .  ____  .  ___
 72
   65
 73
    4
 40
50.8
 49
25.4
 74
    0
 49
-12.7
 74
    0
 49
0
 74
    0
 49
-12.7
 74
    0
  0
LTYPE
  5
3E
330
5
100
AcDbSymbolTableRecord
100
AcDbLinetypeTableRecord
  2
DIVIDE
 70
    0
  3
Divide ____ . . ____ . . ____ . . ____ . . ____
 72
   65
 73
    6
 40
31.75
 49
12.7
 74
    0
 49
-6.35
 74
    0
 49
0
 74
    0
 49
-6.35
 74
    0
 49
0
 74
    0
 49
-6.35
 74
    0
  0
LTYPE
  5
3F
330
5
100
AcDbSymbolTableRecord
100
AcDbLinetypeTableRecord
  2
DIVIDETINY
 70
    0
  3
Divide (.15x) __..__..__..__..__..__..__..__.._
 72
   65
 73
    6
 40
4.7625
 49
1.905
 74
    0
 49
-0.9525
 74
    0
 49
0
 74
    0
 49
-0.9525
 74
    0
 49
0
 74
    0
 49
-0.9525
 74
    0
  0
LTYPE
  5
40
330
5
100
AcDbSymbolTableRecord
100
AcDbLinetypeTableRecord
  2
DIVIDE2
 70
    0
  3
Divide (.5x) __..__..__..__..__..__..__..__.._
 72
   65
 73
    6
 40
15.875
 49
6.35
 74
    0
 49
-3.175
 74
    0
 49
0
 74
    0
 49
-3.175
 74
    0
 49
0
 74
    0
 49
-3.175
 74
    0
  0
LTYPE
  5
41
330
5
100
AcDbSymbolTableRecord
100
AcDbLinetypeTableRecord
  2
DIVIDEX2
 70
    0
  3
Divide (2x) ________  .  .  ________  .  .  _
 72
   65
 73
    6
 40
63.5
 49
25.4
 74
    0
 49
-12.7
 74
    0
 49
0
 74
    0
 49
-12.7
 74
    0
 49
0
 74
    0
 49
-12.7
 74
    0
  0
LTYPE
  5
42
330
5
100
AcDbSymbolTableRecord
100
AcDbLinetypeTableRecord
  2
BORDER
 70
    0
  3
Border __ __ . __ __ . __ __ . __ __ . __ __ .
 72
   65
 73
    6
 40
44.45
 49
12.7
 74
    0
 49
-6.35
 74
    0
 49
12.7
 74
    0
 49
-6.35
 74
    0
 49
0
 74
    0
 49
-6.35
 74
    0
  0
LTYPE
  5
43
330
5
100
AcDbSymbolTableRecord
100
AcDbLinetypeTableRecord
  2
BORDERTINY
 70
    0
  3
Border (.15x) __.__.__.__.__.__.__.__.__.__.__.
 72
   65
 73
    6
 40
6.6675
 49
1.905
 74
    0
 49
-0.9525
 74
    0
 49
1.905
 74
    0
 49
-0.9525
 74
    0
 49
0
 74
    0
 49
-0.9525
 74
    0
  0
LTYPE
  5
44
330
5
100
AcDbSymbolTableRecord
100
AcDbLinetypeTableRecord
  2
BORDER2
 70
    0
  3
Border (.5x) __.__.__.__.__.__.__.__.__.__.__.
 72
   65
 73
    6
 40
22.225
 49
6.35
 74
    0
 49
-3.175
 74
    0
 49
6.35
 74
    0
 49
-3.175
 74
    0
 49
0
 74
    0
 49
-3.175
 74
    0
  0
LTYPE
  5
45
330
5
100
AcDbSymbolTableRecord
100
AcDbLinetypeTableRecord
  2
BORDERX2
 70
    0
  3
Border (2x) ____  ____  .  ____  ____  .  ___
 72
   65
 73
    6
 40
88.89999999999999
 49
25.4
 74
    0
 49
-12.7
 74
    0
 49
25.4
 74
    0
 49
-12.7
 74
    0
 49
0
 74
    0
 49
-12.7
 74
    0
  0
LTYPE
  5
46
330
5
100
AcDbSymbolTableRecord
100
AcDbLinetypeTableRecord
  2
CENTER
 70
    0
  3
Center ____ _ ____ _ ____ _ ____ _ ____ _ ____
 72
   65
 73
    4
 40
50.8
 49
31.75
 74
    0
 49
-6.35
 74
    0
 49
6.35
 74
    0
 49
-6.35
 74
    0
  0
LTYPE
  5
47
330
5
100
AcDbSymbolTableRecord
100
AcDbLinetypeTableRecord
  2
CENTERTINY
 70
    0
  3
Center (.15x) ___ _ ___ _ ___ _ ___ _ ___ _ ___
 72
   65
 73
    4
 40
7.62
 49
4.7625
 74
    0
 49
-0.9525
 74
    0
 49
0.9525
 74
    0
 49
-0.9525
 74
    0
  0
LTYPE
  5
48
330
5
100
AcDbSymbolTableRecord
100
AcDbLinetypeTableRecord
  2
CENTER2
 70
    0
  3
Center (.5x) ___ _ ___ _ ___ _ ___ _ ___ _ ___
 72
   65
 73
    4
 40
28.575
 49
19.05
 74
    0
 49
-3.175
 74
    0
 49
3.175
 74
    0
 49
-3.175
 74
    0
  0
LTYPE
  5
49
330
5
100
AcDbSymbolTableRecord
100
AcDbLinetypeTableRecord
  2
CENTERX2
 70
    0
  3
Center (2x) ________  __  ________  __  _____
 72
   65
 73
    4
 40
101.6
 49
63.5
 74
    0
 49
-12.7
 74
    0
 49
12.7
 74
    0
 49
-12.7
 74
    0
  0
ENDTAB
  0
TABLE
  2
LAYER
  5
2
330
0
100
AcDbSymbolTable
 70
    1
  0
LAYER
  5
10
330
2
100
AcDbSymbolTableRecord
100
AcDbLayerTableRecord
  2
0
 70
    0
 62
    7
  6
CONTINUOUS
370
    0
390
F
  0
LAYER
  5
4A
330
2
100
AcDbSymbolTableRecord
100
AcDbLayerTableRecord
  2
1_Axe
 70
    0
 62
    7
  6
CENTERTINY
370
   13
390
F
  0
LAYER
  5
4B
330
2
100
AcDbSymbolTableRecord
100
AcDbLayerTableRecord
  2
2_Fin
 70
    0
 62
    7
  6
CONTINUOUS
370
   13
390
F
  0
LAYER
  5
4C
330
2
100
AcDbSymbolTableRecord
100
AcDbLayerTableRecord
  2
3_construction
 70
    0
 62
    3
  6
CONTINUOUS
370
    5
390
F
1001
LibreCad
1070
    1
  0
LAYER
  5
4D
330
2
100
AcDbSymbolTableRecord
100
AcDbLayerTableRecord
  2
4_Traits forts
 70
    0
 62
    7
  6
CONTINUOUS
370
   35
390
F
  0
LAYER
  5
4E
330
2
100
AcDbSymbolTableRecord
100
AcDbLayerTableRecord
  2
5_Traits cachés
 70
    0
 62
    7
  6
DASHEDTINY
370
   35
390
F
  0
LAYER
  5
4F
330
2
100
AcDbSymbolTableRecord
100
AcDbLayerTableRecord
  2
6_hatch
 70
    0
 62
    7
  6
CONTINUOUS
370
   18
390
F
1001
LibreCad
1070
    1
  0
LAYER
  5
50
330
2
100
AcDbSymbolTableRecord
100
AcDbLayerTableRecord
  2
9_Cadre Cartouche
 70
    0
 62
    7
  6
CONTINUOUS
370
   35
390
F
  0
LAYER
  5
51
330
2
100
AcDbSymbolTableRecord
100
AcDbLayerTableRecord
  2
Aide PériPhérique
 70
    0
 62
    5
  6
CONTINUOUS
370
   18
390
F
  0
LAYER
  5
52
330
2
100
AcDbSymbolTableRecord
100
AcDbLayerTableRecord
  2
Cadre Extérieur
 70
    0
 62
    7
  6
CONTINUOUS
370
   25
390
F
  0
LAYER
  5
53
330
2
100
AcDbSymbolTableRecord
100
AcDbLayerTableRecord
  2
Symbol ISO
 70
    0
 62
    7
  6
CONTINUOUS
370
   -3
390
F
  0
LAYER
  5
54
330
2
100
AcDbSymbolTableRecord
100
AcDbLayerTableRecord
  2
text
 70
    0
 62
    7
  6
CONTINUOUS
370
   18
390
F
  0
ENDTAB
  0
TABLE
  2
STYLE
  5
3
330
0
100
AcDbSymbolTable
 70
    3
  0
STYLE
  5
55
330
2
100
AcDbSymbolTableRecord
100
AcDbTextStyleTableRecord
  2
normal#0.500000#1.500000
 70
    0
 40
0
 41
1
 50
0
 71
    0
 42
1
  3
normal#0.500000#1.500000
  4

  0
STYLE
  5
56
330
2
100
AcDbSymbolTableRecord
100
AcDbTextStyleTableRecord
  2
normal#0.500000#1.200000
 70
    0
 40
0
 41
1
 50
0
 71
    0
 42
1
  3
normal#0.500000#1.200000
  4

  0
STYLE
  5
57
330
2
100
AcDbSymbolTableRecord
100
AcDbTextStyleTableRecord
  2
iso
 70
    0
 40
0
 41
1
 50
0
 71
    0
 42
1
  3
iso
  4

  0
STYLE
  5
58
330
2
100
AcDbSymbolTableRecord
100
AcDbTextStyleTableRecord
  2
normal#0.200000#1.200000
 70
    0
 40
0
 41
1
 50
0
 71
    0
 42
1
  3
normal#0.200000#1.200000
  4

  0
STYLE
  5
59
330
2
100
AcDbSymbolTableRecord
100
AcDbTextStyleTableRecord
  2
romans
 70
    0
 40
0
 41
1
 50
0
 71
    0
 42
1
  3
romans
  4

  0
STYLE
  5
5A
330
2
100
AcDbSymbolTableRecord
100
AcDbTextStyleTableRecord
  2
normal#0.500000#0.900000
 70
    0
 40
0
 41
1
 50
0
 71
    0
 42
1
  3
normal#0.500000#0.900000
  4

  0
STYLE
  5
5B
330
2
100
AcDbSymbolTableRecord
100
AcDbTextStyleTableRecord
  2
standard
 70
    0
 40
0
 41
1
 50
0
 71
    0
 42
1
  3
standard
  4

  0
STYLE
  5
5C
330
2
100
AcDbSymbolTableRecord
100
AcDbTextStyleTableRecord
  2
iso8859-11
 70
    0
 40
0
 41
1
 50
0
 71
    0
 42
1
  3
iso8859-11
  4

  0
ENDTAB
  0
TABLE
  2
VIEW
  5
6
330
0
100
AcDbSymbolTable
 70
    0
  0
ENDTAB
  0
TABLE
  2
UCS
  5
7
330
0
100
AcDbSymbolTable
 70
    0
  0
ENDTAB
  0
TABLE
  2
APPID
  5
9
330
0
100
AcDbSymbolTable
 70
    1
  0
APPID
  5
12
330
9
100
AcDbSymbolTableRecord
100
AcDbRegAppTableRecord
  2
ACAD
 70
    0
  0
APPID
  5
5D
330
9
100
AcDbSymbolTableRecord
100
AcDbRegAppTableRecord
  2
LibreCad
 70
    0
  0
ENDTAB
  0
TABLE
  2
DIMSTYLE
  5
A
330
0
100
AcDbSymbolTable
 70
    1
100
AcDbDimStyleTable
 71
    1
  0
DIMSTYLE
105
5E
330
A
100
AcDbSymbolTableRecord
100
AcDbDimStyleTableRecord
  2
Standard
 70
    0
 40
2
 41
2
 42
0.625
 43
0.38
 44
1.25
 45
0
 46
0
 47
0
 48
0
 49
1
140
2.5
141
0.09
142
0
143
25.4
144
0.5
145
0
146
1
147
0.625
148
0
 71
    0
 72
    0
 73
    0
 74
    1
 75
    0
 76
    0
 77
    0
 78
    8
 79
    0
170
    0
171
    2
172
    0
173
    0
174
    0
175
    0
176
    0
177
    0
178
    0
179
    0
271
    2
272
    4
273
    2
274
    2
275
    0
276
    0
277
    2
278
   44
279
    0
280
    0
281
    0
282
    0
283
    1
284
    0
285
    0
286
    0
288
    0
289
    3
340
standard
341

371
   -2
372
   -2
  0
ENDTAB
  0
TABLE
  2
BLOCK_RECORD
  5
1
330
0
100
AcDbSymbolTable
 70
    2
  0
BLOCK_RECORD
  5
1F
330
1
100
AcDbSymbolTableRecord
100
AcDbBlockTableRecord
  2
*Model_Space
 70
    0
280
    1
281
    0
  0
BLOCK_RECORD
  5
1E
330
1
100
AcDbSymbolTableRecord
100
AcDbBlockTableRecord
  2
*Paper_Space
 70
    0
280
    1
281
    0
  0
BLOCK_RECORD
  5
5F
330
1
100
AcDbSymbolTableRecord
100
AcDbBlockTableRecord
  2
a3
 70
    0
280
    1
281
    0
  0
BLOCK_RECORD
  5
62
330
1
100
AcDbSymbolTableRecord
100
AcDbBlockTableRecord
  2
a3-0
 70
    0
280
    1
281
    0
  0
BLOCK_RECORD
  5
65
330
1
100
AcDbSymbolTableRecord
100
AcDbBlockTableRecord
  2
a3-1
 70
    0
280
    1
281
    0
  0
BLOCK_RECORD
  5
68
330
1
100
AcDbSymbolTableRecord
100
AcDbBlockTableRecord
  2
a3-2
 70
    0
280
    1
281
    0
  0
BLOCK_RECORD
  5
6B
330
1
100
AcDbSymbolTableRecord
100
AcDbBlockTableRecord
  2
a3-3
 70
    0
280
    1
281
    0
  0
BLOCK_RECORD
  5
6E
330
1
100
AcDbSymbolTableRecord
100
AcDbBlockTableRecord
  2
a3-4
 70
    0
280
    1
281
    0
  0
BLOCK_RECORD
  5
71
330
1
100
AcDbSymbolTableRecord
100
AcDbBlockTableRecord
  2
a3-5
 70
    0
280
    1
281
    0
  0
BLOCK_RECORD
  5
74
330
1
100
AcDbSymbolTableRecord
100
AcDbBlockTableRecord
  2
a3-6
 70
    0
280
    1
281
    0
  0
BLOCK_RECORD
  5
77
330
1
100
AcDbSymbolTableRecord
100
AcDbBlockTableRecord
  2
MCCB
 70
    0
280
    1
281
    0
  0
BLOCK_RECORD
  5
7A
330
1
100
AcDbSymbolTableRecord
100
AcDbBlockTableRecord
  2
A3_a3
 70
    0
280
    1
281
    0
  0
ENDTAB
  0
ENDSEC
  0
SECTION
  2
BLOCKS
  0
BLOCK
  5
20
330
1F
100
AcDbEntity
  8
0
100
AcDbBlockBegin
  2
*Model_Space
 70
    0
 10
0
 20
0
 30
0
  3
*Model_Space
  1

  0
ENDBLK
  5
21
330
1F
100
AcDbEntity
  8
0
100
AcDbBlockEnd
  0
BLOCK
  5
1C
330
1B
100
AcDbEntity
  8
0
100
AcDbBlockBegin
  2
*Paper_Space
 70
    0
 10
0
 20
0
 30
0
  3
*Paper_Space
  1

  0
ENDBLK
  5
1D
330
1F
100
AcDbEntity
  8
0
100
AcDbBlockEnd
  0
BLOCK
  5
60
330
5F
100
AcDbEntity
  8
0
100
AcDbBlockBegin
  2
a3
 70
    0
 10
0
 20
0
  3
a3
  1

  0
HATCH
  5
7D
100
AcDbEntity
  8
6_hatch
  6
ByLayer
 62
  256
370
   -1
100
AcDbHatch
 10
0
 20
0
 30
0
210
0
220
0
230
1
  2
ansi31
 70
    0
 71
    0
 91
    1
 92
    0
 93
    3
 72
    1
 10
124.999976
 20
287.0000239999999
 11
122.4999759999999
 21
291.3301510189223
 72
    1
 10
122.4999759999999
 20
291.3301510189223
 11
127.499976
 21
291.3301510189222
 72
    1
 10
127.499976
 20
291.3301510189222
 11
124.999976
 21
287.0000239999999
 97
    0
 75
    0
 76
    1
 52
4.71238898038469
 41
0.5
 77
    0
 78
    0
 98
    0
  0
HATCH
  5
7E
100
AcDbEntity
  8
6_hatch
  6
ByLayer
 62
  256
370
   -1
100
AcDbHatch
 10
0
 20
0
 30
0
210
0
220
0
230
1
  2
ansi31
 70
    0
 71
    0
 91
    1
 92
    0
 93
    3
 72
    1
 10
229.9999760000001
 20
287.0000239999999
 11
227.4999760000001
 21
291.3301510189222
 72
    1
 10
227.4999760000001
 20
291.3301510189222
 11
232.4999759999999
 21
291.3301510189223
 72
    1
 10
232.4999759999999
 20
291.3301510189223
 11
229.9999760000001
 21
287.0000239999999
 97
    0
 75
    0
 76
    1
 52
4.71238898038469
 41
0.5
 77
    0
 78
    0
 98
    0
  0
HATCH
  5
7F
100
AcDbEntity
  8
6_hatch
  6
ByLayer
 62
  256
370
   -1
100
AcDbHatch
 10
0
 20
0
 30
0
210
0
220
0
230
1
  2
ansi31
 70
    0
 71
    0
 91
    1
 92
    0
 93
    3
 72
    1
 10
314.9999999999999
 20
287.0000240000001
 11
312.4999999999999
 21
291.3301510189223
 72
    1
 10
312.4999999999999
 20
291.3301510189223
 11
317.4999999999999
 21
291.3301510189223
 72
    1
 10
317.4999999999999
 20
291.3301510189223
 11
314.9999999999999
 21
287.0000240000001
 97
    0
 75
    0
 76
    1
 52
4.71238898038469
 41
0.5
 77
    0
 78
    0
 98
    0
  0
HATCH
  5
80
100
AcDbEntity
  8
6_hatch
  6
ByLayer
 62
  256
370
   -1
100
AcDbHatch
 10
0
 20
0
 30
0
210
0
220
0
230
1
  2
ansi31
 70
    0
 71
    0
 91
    1
 92
    0
 93
    3
 72
    1
 10
315
 20
9.999976000000061
 11
312.5
 21
5.669848981077877
 72
    1
 10
312.5
 20
5.669848981077877
 11
317.5
 21
5.669848981077905
 72
    1
 10
317.5
 20
5.669848981077905
 11
315
 21
9.999976000000061
 97
    0
 75
    0
 76
    1
 52
4.71238898038469
 41
0.5
 77
    0
 78
    0
 98
    0
  0
HATCH
  5
81
100
AcDbEntity
  8
6_hatch
  6
ByLayer
 62
  256
370
   -1
100
AcDbHatch
 10
0
 20
0
 30
0
210
0
220
0
230
1
  2
ansi31
 70
    0
 71
    0
 91
    1
 92
    0
 93
    3
 72
    1
 10
229.9999760000001
 20
9.999976000000089
 11
227.4999760000001
 21
5.669848981077877
 72
    1
 10
227.4999760000001
 20
5.669848981077877
 11
232.4999760000001
 21
5.669848981077877
 72
    1
 10
232.4999760000001
 20
5.669848981077877
 11
229.9999760000001
 21
9.999976000000089
 97
    0
 75
    0
 76
    1
 52
4.71238898038469
 41
0.5
 77
    0
 78
    0
 98
    0
  0
HATCH
  5
82
100
AcDbEntity
  8
6_hatch
  6
ByLayer
 62
  256
370
   -1
100
AcDbHatch
 10
0
 20
0
 30
0
210
0
220
0
230
1
  2
ansi31
 70
    0
 71
    0
 91
    1
 92
    0
 93
    3
 72
    1
 10
124.9999760000001
 20
9.999976000000061
 11
122.499976
 21
5.669848981077848
 72
    1
 10
122.499976
 20
5.669848981077848
 11
127.4999760000001
 21
5.669848981077848
 72
    1
 10
127.4999760000001
 20
5.669848981077848
 11
124.9999760000001
 21
9.999976000000061
 97
    0
 75
    0
 76
    1
 52
4.71238898038469
 41
0.5
 77
    0
 78
    0
 98
    0
  0
HATCH
  5
83
100
AcDbEntity
  8
6_hatch
  6
ByLayer
 62
  256
370
   -1
100
AcDbHatch
 10
0
 20
0
 30
0
210
0
220
0
230
1
  2
ansi31
 70
    0
 71
    0
 91
    1
 92
    0
 93
    3
 72
    1
 10
410.0000000000002
 20
148.5000000000001
 11
414.3301270189227
 21
146.0000000000002
 72
    1
 10
414.3301270189227
 20
146.0000000000002
 11
414.3301270189222
 21
150.9999999999998
 72
    1
 10
414.3301270189222
 20
150.9999999999998
 11
410.0000000000002
 21
148.5000000000001
 97
    0
 75
    0
 76
    1
 52
3.141592653589793
 41
0.5
 77
    0
 78
    0
 98
    0
  0
HATCH
  5
84
100
AcDbEntity
  8
6_hatch
  6
ByLayer
 62
  256
370
   -1
100
AcDbHatch
 10
0
 20
0
 30
0
210
0
220
0
230
1
  2
ansi31
 70
    0
 71
    0
 91
    1
 92
    0
 93
    3
 72
    1
 10
19.99999999999989
 20
148.5
 11
15.66987298107769
 21
146
 72
    1
 10
15.66987298107769
 20
146
 11
15.66987298107769
 21
151
 72
    1
 10
15.66987298107769
 20
151
 11
19.99999999999989
 21
148.5
 97
    0
 75
    0
 76
    1
 52
0
 41
0.5
 77
    0
 78
    0
 98
    0
  0
CIRCLE
  5
85
100
AcDbEntity
  8
Aide PériPhérique
  6
ByLayer
 62
  256
370
   -1
100
AcDbCircle
 10
15.00000000000003
 20
222.7500000000001
 40
3
  0
LINE
  5
86
100
AcDbEntity
  8
Aide PériPhérique
  6
ByLayer
 62
  256
370
   -1
100
AcDbLine
 10
19.99999999999989
 20
148.5
 11
15.66987298107769
 21
146
  0
LINE
  5
87
100
AcDbEntity
  8
Aide PériPhérique
  6
ByLayer
 62
  256
370
   -1
100
AcDbLine
 10
19.99999999999989
 20
148.5
 11
15.66987298107769
 21
151
  0
LINE
  5
88
100
AcDbEntity
  8
Aide PériPhérique
  6
ByLayer
 62
  256
370
   -1
100
AcDbLine
 10
15.66987298107769
 20
146
 11
15.66987298107769
 21
151
  0
CIRCLE
  5
89
100
AcDbEntity
  8
Aide PériPhérique
  6
ByLayer
 62
  256
370
   -1
100
AcDbCircle
 10
15
 20
74.25000000000011
 40
3
  0
MTEXT
  5
8A
100
AcDbEntity
  8
Aide PériPhérique
  6
ByLayer
 62
  256
370
   -1
100
AcDbMText
 10
15
 20
74.25000000000011
 30
0
 40
4
 41
2.666666666666667
 71
    5
 72
    5
  1
A
  7
iso
210
0
220
0
230
1
 50
6.283185307179586
 73
    2
 44
0.96
  0
MTEXT
  5
8B
100
AcDbEntity
  8
Aide PériPhérique
  6
ByLayer
 62
  256
370
   -1
100
AcDbMText
 10
15.00000000000003
 20
222.7500000000001
 30
0
 40
4
 41
2.222222222222222
 71
    5
 72
    5
  1
B
  7
iso
210
0
220
0
230
1
 50
6.283185307179586
 73
    2
 44
0.96
  0
LINE
  5
8C
100
AcDbEntity
  8
Cadre Extérieur
  6
CONTINUOUS
 62
    7
370
    0
100
AcDbLine
 10
20.00000000000002
 20
287
 11
20
 21
10
  0
LINE
  5
8D
100
AcDbEntity
  8
Aide PériPhérique
  6
ByLayer
 62
  256
370
   -1
100
AcDbLine
 10
2.57e-014
 20
297
 11
0
 21
0
  0
LINE
  5
8E
100
AcDbEntity
  8
Cadre Extérieur
  6
CONTINUOUS
 62
    7
370
    0
100
AcDbLine
 10
20
 20
10
 11
410
 21
10
  0
LINE
  5
8F
100
AcDbEntity
  8
Cadre Extérieur
  6
CONTINUOUS
 62
    7
370
    0
100
AcDbLine
 10
373.600021
 20
65.250094
 11
373.600021
 21
58.875052
  0
LINE
  5
90
100
AcDbEntity
  8
Cadre Extérieur
  6
CONTINUOUS
 62
    7
370
    0
100
AcDbLine
 10
397
 20
26.999987
 11
397
 21
14.250042
  0
LINE
  5
91
100
AcDbEntity
  8
Cadre Extérieur
  6
CONTINUOUS
 62
    7
370
    0
100
AcDbLine
 10
365.8000340000001
 20
14.250107
 11
365.8000340000001
 21
10.000098
  0
LINE
  5
92
100
AcDbEntity
  8
Cadre Extérieur
  6
CONTINUOUS
 62
    7
370
    0
100
AcDbLine
 10
303.400024
 20
65.250097
 11
303.400024
 21
27.000059
  0
LINE
  5
93
100
AcDbEntity
  8
Cadre Extérieur
  6
CONTINUOUS
 62
    7
370
    0
100
AcDbLine
 10
287.8000179999999
 20
48.25009
 11
287.8000179999999
 21
27.000136
  0
LINE
  5
94
100
AcDbEntity
  8
Cadre Extérieur
  6
CONTINUOUS
 62
    7
370
    0
100
AcDbLine
 10
277.400024
 20
65.25009
 11
277.400024
 21
10.000094
  0
LINE
  5
95
100
AcDbEntity
  8
Cadre Extérieur
  6
CONTINUOUS
 62
    7
370
    0
100
AcDbLine
 10
321.6000059999999
 20
65.250139
 11
321.6000059999999
 21
10.000097
  0
LINE
  5
96
100
AcDbEntity
  8
Cadre Extérieur
  6
CONTINUOUS
 62
    7
370
    0
100
AcDbLine
 10
269.6000059999999
 20
48.250082
 11
269.6000369999999
 21
10.000099
  0
LINE
  5
97
100
AcDbEntity
  8
Cadre Extérieur
  6
CONTINUOUS
 62
    7
370
    0
100
AcDbLine
 10
256.6000059999999
 20
48.250101
 11
256.6000059999999
 21
10.000091
  0
LINE
  5
98
100
AcDbEntity
  8
Cadre Extérieur
  6
CONTINUOUS
 62
    7
370
    0
100
AcDbLine
 10
230.600006
 20
48.250113
 11
230.600006
 21
10.000093
  0
LINE
  5
99
100
AcDbEntity
  8
Cadre Extérieur
  6
CONTINUOUS
 62
    7
370
    0
100
AcDbLine
 10
222.800018
 20
31.250075
 11
321.6000059999999
 21
31.250092
  0
LINE
  5
9A
100
AcDbEntity
  8
Cadre Extérieur
  6
CONTINUOUS
 62
    7
370
    0
100
AcDbLine
 10
222.800018
 20
35.50008
 11
321.6000059999999
 21
35.500115
  0
LINE
  5
9B
100
AcDbEntity
  8
Cadre Extérieur
  6
CONTINUOUS
 62
    7
370
    0
100
AcDbLine
 10
222.800018
 20
39.750116
 11
321.6000369999999
 21
39.750067
  0
LINE
  5
9C
100
AcDbEntity
  8
Cadre Extérieur
  6
CONTINUOUS
 62
    7
370
    0
100
AcDbLine
 10
222.800018
 20
44.000097
 11
321.6000369999999
 21
44.000086
  0
LINE
  5
9D
100
AcDbEntity
  8
Cadre Extérieur
  6
CONTINUOUS
 62
    7
370
    0
100
AcDbLine
 10
222.800018
 20
22.750055
 11
277.400024
 21
22.750061
  0
LINE
  5
9E
100
AcDbEntity
  8
Cadre Extérieur
  6
CONTINUOUS
 62
    7
370
    0
100
AcDbLine
 10
222.800018
 20
18.500054
 11
277.400024
 21
18.500122
  0
LINE
  5
9F
100
AcDbEntity
  8
Cadre Extérieur
  6
CONTINUOUS
 62
    7
370
    0
100
AcDbLine
 10
321.6000059999999
 20
58.87512
 11
410
 21
58.87504
  0
LINE
  5
A0
100
AcDbEntity
  8
Cadre Extérieur
  6
CONTINUOUS
 62
    7
370
    0
100
AcDbLine
 10
222.800018
 20
14.250083
 11
410
 21
14.25009
  0
LINE
  5
A1
100
AcDbEntity
  8
Cadre Extérieur
  6
CONTINUOUS
 62
    7
370
    0
100
AcDbLine
 10
222.800018
 20
48.250086
 11
410.000061
 21
48.250101
  0
LINE
  5
A2
100
AcDbEntity
  8
Cadre Extérieur
  6
CONTINUOUS
 62
    7
370
    0
100
AcDbLine
 10
222.800018
 20
27.000107
 11
410.000061
 21
26.999993
  0
LINE
  5
A3
100
AcDbEntity
  8
Cadre Extérieur
  6
CONTINUOUS
 62
    7
370
    0
100
AcDbLine
 10
222.800018
 20
65.250086
 11
410
 21
65.25016599999999
  0
LINE
  5
A4
100
AcDbEntity
  8
Cadre Extérieur
  6
CONTINUOUS
 62
    7
370
    0
100
AcDbLine
 10
410.000061
 20
65.250181
 11
410
 21
10
  0
LINE
  5
A5
100
AcDbEntity
  8
Cadre Extérieur
  6
CONTINUOUS
 62
    7
370
    0
100
AcDbLine
 10
410
 20
10
 11
222.800018
 21
10.000101
  0
LINE
  5
A6
100
AcDbEntity
  8
Cadre Extérieur
  6
CONTINUOUS
 62
    7
370
    0
100
AcDbLine
 10
222.800018
 20
65.250086
 11
222.800018
 21
10.000101
  0
LINE
  5
A7
100
AcDbEntity
  8
Symbol ISO
  6
DASHDOT
 62
    7
370
    0
100
AcDbLine
 10
280.2711420000001
 20
57.242876
 11
300.2711420000001
 21
57.242876
  0
CIRCLE
  5
A8
100
AcDbEntity
  8
Symbol ISO
  6
CONTINUOUS
 62
    7
370
    0
100
AcDbCircle
 10
295.4711420000001
 20
57.242876
 40
2.8
  0
CIRCLE
  5
A9
100
AcDbEntity
  8
Symbol ISO
  6
CONTINUOUS
 62
    7
370
    0
100
AcDbCircle
 10
295.4711420000001
 20
57.242876
 40
1.6
  0
LINE
  5
AA
100
AcDbEntity
  8
Symbol ISO
  6
CONTINUOUS
 62
    7
370
    0
100
AcDbLine
 10
282.6711419999999
 20
58.842876
 11
282.6711419999999
 21
55.642876
  0
LINE
  5
AB
100
AcDbEntity
  8
Symbol ISO
  6
CONTINUOUS
 62
    7
370
    0
100
AcDbLine
 10
282.6711419999999
 20
55.642876
 11
289.071142
 21
54.442876
  0
LINE
  5
AC
100
AcDbEntity
  8
Symbol ISO
  6
CONTINUOUS
 62
    7
370
    0
100
AcDbLine
 10
289.071142
 20
60.042876
 11
289.071142
 21
54.442876
  0
LINE
  5
AD
100
AcDbEntity
  8
Symbol ISO
  6
CONTINUOUS
 62
    7
370
    0
100
AcDbLine
 10
282.6711419999999
 20
58.842876
 11
289.071142
 21
60.042876
  0
LINE
  5
AE
100
AcDbEntity
  8
Symbol ISO
  6
DASHDOT
 62
    7
370
    0
100
AcDbLine
 10
295.4711420000001
 20
52.442876
 11
295.4711420000001
 21
62.042876
  0
MTEXT
  5
AF
100
AcDbEntity
  8
text
  6
ByLayer
 62
  256
370
   -1
100
AcDbMText
 10
322.726257
 20
60.81260492786925
 30
0
 40
2.5
 41
18.88984131895054
 71
    7
 72
    5
  1
scale  1 : 1
  7
normal#0.500000#1.500000
210
0
220
0
230
1
 50
0
 73
    1
 44
0.96
  0
MTEXT
  5
B0
100
AcDbEntity
  8
text
  6
ByLayer
 62
  256
370
   -1
100
AcDbMText
 10
374.726242
 20
60.53487722222222
 30
0
 40
2.5
 41
9.722224238102887
 71
    7
 72
    5
  1
(mass)
  7
normal#0.500000#1.500000
210
0
220
0
230
1
 50
0
 73
    1
 44
0.96
  0
MTEXT
  5
B1
100
AcDbEntity
  8
text
  6
ByLayer
 62
  256
370
   -1
100
AcDbMText
 10
322.7620850000001
 20
54.51309666666666
 30
0
 40
2.5
 41
38.68055628571858
 71
    7
 72
    5
  1
(material, specification)
  7
normal#0.500000#1.500000
210
0
220
0
230
1
 50
0
 73
    1
 44
0.96
  0
MTEXT
  5
B2
100
AcDbEntity
  8
text
  6
ByLayer
 62
  256
370
   -1
100
AcDbMText
 10
290.6053770000001
 20
44.87508999999989
 30
0
 40
2.5
 41
6.6666666666669
 71
    7
 72
    5
  1
date
  7
normal#0.500000#1.200000
210
0
220
0
230
1
 50
0
 73
    1
 44
0.96
  0
MTEXT
  5
B3
100
AcDbEntity
  8
text
  6
ByLayer
 62
  256
370
   -1
100
AcDbMText
 10
308.1733400000001
 20
44.87508199999989
 30
0
 40
2.5
 41
7.500000000000348
 71
    7
 72
    5
  1
name
  7
normal#0.500000#1.200000
210
0
220
0
230
1
 50
0
 73
    1
 44
0.96
  0
MTEXT
  5
B4
100
AcDbEntity
  8
text
  6
ByLayer
 62
  256
370
   -1
100
AcDbMText
 10
277.713043
 20
39.79171466666655
 30
0
 40
2.5
 41
8.611112396829338
 71
    7
 72
    5
  1
desig.
  7
normal#0.500000#1.200000
210
0
220
0
230
1
 50
0
 73
    1
 44
0.96
  0
MTEXT
  5
B5
100
AcDbEntity
  8
text
  6
ByLayer
 62
  256
370
   -1
100
AcDbMText
 10
277.898956
 20
36.37514499999989
 30
0
 40
2.5
 41
11.38888888888912
 71
    7
 72
    5
  1
check'd
  7
normal#0.500000#1.200000
210
0
220
0
230
1
 50
0
 73
    1
 44
0.96
  0
MTEXT
  5
B6
100
AcDbEntity
  8
text
  6
ByLayer
 62
  256
370
   -1
100
AcDbMText
 10
277.898956
 20
32.12510899999989
 30
0
 40
2.5
 41
7.500000000000234
 71
    7
 72
    5
  1
auth.
  7
normal#0.500000#1.200000
210
0
220
0
230
1
 50
0
 73
    1
 44
0.96
  0
MTEXT
  5
B7
100
AcDbEntity
  8
text
  6
ByLayer
 62
  256
370
   -1
100
AcDbMText
 10
223.114746
 20
10.87509599999988
 30
0
 40
2.5
 41
3.888888888888967
 71
    7
 72
    5
  1
loc
  7
normal#0.500000#1.200000
210
0
220
0
230
1
 50
0
 73
    1
 44
0.96
  0
MTEXT
  5
B8
100
AcDbEntity
  8
text
  6
ByLayer
 62
  256
370
   -1
100
AcDbMText
 10
236.185455
 20
10.04176166666655
 30
0
 40
2.5
 41
10.55555555555614
 71
    7
 72
    5
  1
change
  7
normal#0.500000#1.200000
210
0
220
0
230
1
 50
0
 73
    1
 44
0.96
  0
MTEXT
  5
B9
100
AcDbEntity
  8
text
  6
ByLayer
 62
  256
370
   -1
100
AcDbMText
 10
258.411652
 20
10.87513199999988
 30
0
 40
2.5
 41
6.6666666666669
 71
    7
 72
    5
  1
date
  7
normal#0.500000#1.200000
210
0
220
0
230
1
 50
0
 73
    1
 44
0.96
  0
MTEXT
  5
BA
100
AcDbEntity
  8
text
  6
ByLayer
 62
  256
370
   -1
100
AcDbMText
 10
269.6750489999999
 20
10.87506499999988
 30
0
 40
2.5
 41
7.500000000000348
 71
    7
 72
    5
  1
name
  7
normal#0.200000#1.200000
210
0
220
0
230
1
 50
0
 73
    1
 44
0.96
  0
MTEXT
  5
BB
100
AcDbEntity
  8
text
  6
ByLayer
 62
  256
370
   -1
100
AcDbMText
 10
278.6523440000001
 20
10.04172966666655
 30
0
 40
2.5
 41
11.38888888888901
 71
    7
 72
    5
  1
project
  7
normal#0.500000#1.200000
210
0
220
0
230
1
 50
0
 73
    1
 44
0.96
  0
MTEXT
  5
BC
100
AcDbEntity
  8
text
  6
ByLayer
 62
  256
370
   -1
100
AcDbMText
 10
323.2767329999999
 20
10.04178766666667
 30
0
 40
2.5
 41
13.33333461905145
 71
    7
 72
    5
  1
replaces
  7
normal#0.500000#1.500000
210
0
220
0
230
1
 50
0
 73
    1
 44
0.96
  0
MTEXT
  5
BD
100
AcDbEntity
  8
text
  6
ByLayer
 62
  256
370
   -1
100
AcDbMText
 10
367.4767300000001
 20
10.04186066666667
 30
0
 40
2.5
 41
19.09722222222246
 71
    7
 72
    5
  1
replaced by
  7
normal#0.500000#1.500000
210
0
220
0
230
1
 50
0
 73
    1
 44
0.96
  0
MTEXT
  5
BE
100
AcDbEntity
  8
text
  6
ByLayer
 62
  256
370
   -1
100
AcDbMText
 10
399.839905
 20
15.2375699422954
 30
0
 40
2
 41
6.889650832938209
 71
    7
 72
    5
  1
sheet
  7
normal#0.500000#0.900000
210
0
220
0
230
1
 50
0
 73
    1
 44
0.96
  0
MTEXT
  5
BF
100
AcDbEntity
  8
text
  6
ByLayer
 62
  256
370
   -1
100
AcDbMText
 10
322.496576
 20
27.91470066666667
 30
0
 40
2.5
 41
16.59722222222269
 71
    7
 72
    5
  1
part name
  7
normal#0.500000#0.900000
210
0
220
0
230
1
 50
0
 73
    1
 44
0.96
  0
MTEXT
  5
C0
100
AcDbEntity
  8
text
  6
ByLayer
 62
  256
370
   -1
100
AcDbMText
 10
322.2766879999999
 20
14.50148366666667
 30
0
 40
2.5
 41
20.2083333333338
 71
    7
 72
    5
  1
part number
  7
normal#0.500000#0.900000
210
0
220
0
230
1
 50
0
 73
    1
 44
0.96
  0
CIRCLE
  5
C1
100
AcDbEntity
  8
Aide PériPhérique
  6
ByLayer
 62
  256
370
   -1
100
AcDbCircle
 10
414.9999999999998
 20
222.7499999999999
 40
3
  0
LINE
  5
C2
100
AcDbEntity
  8
Aide PériPhérique
  6
ByLayer
 62
  256
370
   -1
100
AcDbLine
 10
410.0000000000002
 20
148.5000000000001
 11
414.3301270189227
 21
146.0000000000002
  0
LINE
  5
C3
100
AcDbEntity
  8
Aide PériPhérique
  6
ByLayer
 62
  256
370
   -1
100
AcDbLine
 10
410.0000000000002
 20
148.5000000000001
 11
414.3301270189222
 21
150.9999999999998
  0
LINE
  5
C4
100
AcDbEntity
  8
Aide PériPhérique
  6
ByLayer
 62
  256
370
   -1
100
AcDbLine
 10
414.3301270189227
 20
146.0000000000002
 11
414.3301270189222
 21
150.9999999999998
  0
CIRCLE
  5
C5
100
AcDbEntity
  8
Aide PériPhérique
  6
ByLayer
 62
  256
370
   -1
100
AcDbCircle
 10
415
 20
74.25
 40
3
  0
MTEXT
  5
C6
100
AcDbEntity
  8
Aide PériPhérique
  6
ByLayer
 62
  256
370
   -1
100
AcDbMText
 10
415
 20
74.25
 30
0
 40
4
 41
2.666666666666667
 71
    5
 72
    5
  1
A
  7
iso
210
0
220
0
230
1
 50
6.283185307179586
 73
    2
 44
0.96
  0
MTEXT
  5
C7
100
AcDbEntity
  8
Aide PériPhérique
  6
ByLayer
 62
  256
370
   -1
100
AcDbMText
 10
414.9999999999998
 20
222.7499999999999
 30
0
 40
4
 41
2.222222222222222
 71
    5
 72
    5
  1
B
  7
iso
210
0
220
0
230
1
 50
6.283185307179586
 73
    2
 44
0.96
  0
LINE
  5
C8
100
AcDbEntity
  8
Cadre Extérieur
  6
CONTINUOUS
 62
    7
370
    0
100
AcDbLine
 10
20.00000000000002
 20
287
 11
410
 21
287
  0
LINE
  5
C9
100
AcDbEntity
  8
Cadre Extérieur
  6
CONTINUOUS
 62
    7
370
    0
100
AcDbLine
 10
410
 20
287
 11
410
 21
10
  0
LINE
  5
CA
100
AcDbEntity
  8
Aide PériPhérique
  6
ByLayer
 62
  256
370
   -1
100
AcDbLine
 10
420
 20
297
 11
2.57e-014
 21
297
  0
LINE
  5
CB
100
AcDbEntity
  8
Aide PériPhérique
  6
ByLayer
 62
  256
370
   -1
100
AcDbLine
 10
125
 20
0
 11
125
 21
10
  0
LINE
  5
CC
100
AcDbEntity
  8
Aide PériPhérique
  6
ByLayer
 62
  256
370
   -1
100
AcDbLine
 10
230
 20
2.84e-014
 11
230
 21
9.999999999999972
  0
LINE
  5
CD
100
AcDbEntity
  8
Aide PériPhérique
  6
ByLayer
 62
  256
370
   -1
100
AcDbLine
 10
124.9999760000001
 20
9.999976000000061
 11
122.499976
 21
5.669848981077848
  0
LINE
  5
CE
100
AcDbEntity
  8
Aide PériPhérique
  6
ByLayer
 62
  256
370
   -1
100
AcDbLine
 10
124.9999760000001
 20
9.999976000000061
 11
127.4999760000001
 21
5.669848981077848
  0
LINE
  5
CF
100
AcDbEntity
  8
Aide PériPhérique
  6
ByLayer
 62
  256
370
   -1
100
AcDbLine
 10
122.499976
 20
5.669848981077848
 11
127.4999760000001
 21
5.669848981077848
  0
CIRCLE
  5
D0
100
AcDbEntity
  8
Aide PériPhérique
  6
ByLayer
 62
  256
370
   -1
100
AcDbCircle
 10
177.4999999999999
 20
5
 40
3
  0
LINE
  5
D1
100
AcDbEntity
  8
Aide PériPhérique
  6
ByLayer
 62
  256
370
   -1
100
AcDbLine
 10
229.9999760000001
 20
9.999976000000089
 11
227.4999760000001
 21
5.669848981077877
  0
LINE
  5
D2
100
AcDbEntity
  8
Aide PériPhérique
  6
ByLayer
 62
  256
370
   -1
100
AcDbLine
 10
229.9999760000001
 20
9.999976000000089
 11
232.4999760000001
 21
5.669848981077877
  0
LINE
  5
D3
100
AcDbEntity
  8
Aide PériPhérique
  6
ByLayer
 62
  256
370
   -1
100
AcDbLine
 10
227.4999760000001
 20
5.669848981077877
 11
232.4999760000001
 21
5.669848981077877
  0
CIRCLE
  5
D4
100
AcDbEntity
  8
Aide PériPhérique
  6
ByLayer
 62
  256
370
   -1
100
AcDbCircle
 10
72.49999999999999
 20
5
 40
3
  0
MTEXT
  5
D5
100
AcDbEntity
  8
Aide PériPhérique
  6
ByLayer
 62
  256
370
   -1
100
AcDbMText
 10
72.49999999999999
 20
5
 30
0
 40
4
 41
0.8888888888888888
 71
    5
 72
    5
  1
1
  7
iso
210
0
220
0
230
1
 50
0
 73
    2
 44
0.96
  0
MTEXT
  5
D6
100
AcDbEntity
  8
Aide PériPhérique
  6
ByLayer
 62
  256
370
   -1
100
AcDbMText
 10
177.4999999999999
 20
5
 30
0
 40
4
 41
1.777777777777778
 71
    5
 72
    5
  1
2
  7
iso
210
0
220
0
230
1
 50
0
 73
    2
 44
0.96
  0
CIRCLE
  5
D7
100
AcDbEntity
  8
Aide PériPhérique
  6
ByLayer
 62
  256
370
   -1
100
AcDbCircle
 10
278
 20
5.000000000000057
 40
3
  0
MTEXT
  5
D8
100
AcDbEntity
  8
Aide PériPhérique
  6
ByLayer
 62
  256
370
   -1
100
AcDbMText
 10
278
 20
5.000000000000057
 30
0
 40
4
 41
1.777777777778026
 71
    5
 72
    5
  1
3
  7
iso
210
0
220
0
230
1
 50
0
 73
    2
 44
0.96
  0
LINE
  5
D9
100
AcDbEntity
  8
Aide PériPhérique
  6
ByLayer
 62
  256
370
   -1
100
AcDbLine
 10
315
 20
9.999976000000061
 11
312.5
 21
5.669848981077877
  0
LINE
  5
DA
100
AcDbEntity
  8
Aide PériPhérique
  6
ByLayer
 62
  256
370
   -1
100
AcDbLine
 10
315
 20
9.999976000000061
 11
317.5
 21
5.669848981077905
  0
LINE
  5
DB
100
AcDbEntity
  8
Aide PériPhérique
  6
ByLayer
 62
  256
370
   -1
100
AcDbLine
 10
312.5
 20
5.669848981077877
 11
317.5
 21
5.669848981077905
  0
CIRCLE
  5
DC
100
AcDbEntity
  8
Aide PériPhérique
  6
ByLayer
 62
  256
370
   -1
100
AcDbCircle
 10
363.0000239999999
 20
4.999999999999943
 40
3
  0
MTEXT
  5
DD
100
AcDbEntity
  8
Aide PériPhérique
  6
ByLayer
 62
  256
370
   -1
100
AcDbMText
 10
363.0000239999999
 20
4.999999999999943
 30
0
 40
4
 41
2.222222222222222
 71
    5
 72
    5
  1
4
  7
iso
210
0
220
0
230
1
 50
0
 73
    2
 44
0.96
  0
LINE
  5
DE
100
AcDbEntity
  8
Aide PériPhérique
  6
ByLayer
 62
  256
370
   -1
100
AcDbLine
 10
420
 20
0
 11
420
 21
297
  0
LINE
  5
DF
100
AcDbEntity
  8
Aide PériPhérique
  6
ByLayer
 62
  256
370
   -1
100
AcDbLine
 10
3.55e-014
 20
0
 11
420
 21
0
  0
LINE
  5
E0
100
AcDbEntity
  8
Aide PériPhérique
  6
ByLayer
 62
  256
370
   -1
100
AcDbLine
 10
124.9999999999999
 20
297.0000000000001
 11
125
 21
287
  0
LINE
  5
E1
100
AcDbEntity
  8
Aide PériPhérique
  6
ByLayer
 62
  256
370
   -1
100
AcDbLine
 10
229.9999999999999
 20
297.0000000000001
 11
230.0000000000001
 21
287
  0
LINE
  5
E2
100
AcDbEntity
  8
Aide PériPhérique
  6
ByLayer
 62
  256
370
   -1
100
AcDbLine
 10
124.999976
 20
287.0000239999999
 11
122.4999759999999
 21
291.3301510189223
  0
LINE
  5
E3
100
AcDbEntity
  8
Aide PériPhérique
  6
ByLayer
 62
  256
370
   -1
100
AcDbLine
 10
124.999976
 20
287.0000239999999
 11
127.499976
 21
291.3301510189222
  0
LINE
  5
E4
100
AcDbEntity
  8
Aide PériPhérique
  6
ByLayer
 62
  256
370
   -1
100
AcDbLine
 10
122.4999759999999
 20
291.3301510189223
 11
127.499976
 21
291.3301510189222
  0
CIRCLE
  5
E5
100
AcDbEntity
  8
Aide PériPhérique
  6
ByLayer
 62
  256
370
   -1
100
AcDbCircle
 10
177.4999999999999
 20
292.0000000000001
 40
3
  0
LINE
  5
E6
100
AcDbEntity
  8
Aide PériPhérique
  6
ByLayer
 62
  256
370
   -1
100
AcDbLine
 10
229.9999760000001
 20
287.0000239999999
 11
227.4999760000001
 21
291.3301510189222
  0
LINE
  5
E7
100
AcDbEntity
  8
Aide PériPhérique
  6
ByLayer
 62
  256
370
   -1
100
AcDbLine
 10
229.9999760000001
 20
287.0000239999999
 11
232.4999759999999
 21
291.3301510189223
  0
LINE
  5
E8
100
AcDbEntity
  8
Aide PériPhérique
  6
ByLayer
 62
  256
370
   -1
100
AcDbLine
 10
227.4999760000001
 20
291.3301510189222
 11
232.4999759999999
 21
291.3301510189223
  0
CIRCLE
  5
E9
100
AcDbEntity
  8
Aide PériPhérique
  6
ByLayer
 62
  256
370
   -1
100
AcDbCircle
 10
72.49999999999997
 20
292
 40
3
  0
MTEXT
  5
EA
100
AcDbEntity
  8
Aide PériPhérique
  6
ByLayer
 62
  256
370
   -1
100
AcDbMText
 10
72.49999999999997
 20
292
 30
0
 40
4
 41
0.8888888888888888
 71
    5
 72
    5
  1
1
  7
iso
210
0
220
0
230
1
 50
0
 73
    2
 44
0.96
  0
MTEXT
  5
EB
100
AcDbEntity
  8
Aide PériPhérique
  6
ByLayer
 62
  256
370
   -1
100
AcDbMText
 10
177.4999999999999
 20
292.0000000000001
 30
0
 40
4
 41
1.777777777777778
 71
    5
 72
    5
  1
2
  7
iso
210
0
220
0
230
1
 50
0
 73
    2
 44
0.96
  0
CIRCLE
  5
EC
100
AcDbEntity
  8
Aide PériPhérique
  6
ByLayer
 62
  256
370
   -1
100
AcDbCircle
 10
278
 20
292
 40
3
  0
MTEXT
  5
ED
100
AcDbEntity
  8
Aide PériPhérique
  6
ByLayer
 62
  256
370
   -1
100
AcDbMText
 10
278
 20
292
 30
0
 40
4
 41
1.777777777778026
 71
    5
 72
    5
  1
3
  7
iso
210
0
220
0
230
1
 50
0
 73
    2
 44
0.96
  0
LINE
  5
EE
100
AcDbEntity
  8
Aide PériPhérique
  6
ByLayer
 62
  256
370
   -1
100
AcDbLine
 10
314.9999999999999
 20
287.0000240000001
 11
312.4999999999999
 21
291.3301510189223
  0
LINE
  5
EF
100
AcDbEntity
  8
Aide PériPhérique
  6
ByLayer
 62
  256
370
   -1
100
AcDbLine
 10
314.9999999999999
 20
287.0000240000001
 11
317.4999999999999
 21
291.3301510189223
  0
LINE
  5
F0
100
AcDbEntity
  8
Aide PériPhérique
  6
ByLayer
 62
  256
370
   -1
100
AcDbLine
 10
312.4999999999999
 20
291.3301510189223
 11
317.4999999999999
 21
291.3301510189223
  0
CIRCLE
  5
F1
100
AcDbEntity
  8
Aide PériPhérique
  6
ByLayer
 62
  256
370
   -1
100
AcDbCircle
 10
363.0000239999999
 20
292.0000000000003
 40
3
  0
MTEXT
  5
F2
100
AcDbEntity
  8
Aide PériPhérique
  6
ByLayer
 62
  256
370
   -1
100
AcDbMText
 10
363.0000239999999
 20
292.0000000000003
 30
0
 40
4
 41
2.222222222222222
 71
    5
 72
    5
  1
4
  7
iso
210
0
220
0
230
1
 50
0
 73
    2
 44
0.96
  0
ENDBLK
  5
61
330
5F
100
AcDbEntity
  8
0
100
AcDbBlockEnd
  0
BLOCK
  5
63
330
62
100
AcDbEntity
  8
0
100
AcDbBlockBegin
  2
a3-0
 70
    0
 10
0
 20
0
  3
a3-0
  1

  0
CIRCLE
  5
F3
100
AcDbEntity
  8
Aide PériPhérique
  6
ByLayer
 62
  256
370
   -1
100
AcDbCircle
 10
15.00000000000002
 20
222.7500000000001
 40
3
  0
LINE
  5
F4
100
AcDbEntity
  8
Aide PériPhérique
  6
ByLayer
 62
  256
370
   -1
100
AcDbLine
 10
19.99999999999989
 20
148.5
 11
15.66987298107769
 21
146
  0
LINE
  5
F5
100
AcDbEntity
  8
Aide PériPhérique
  6
ByLayer
 62
  256
370
   -1
100
AcDbLine
 10
19.99999999999989
 20
148.5
 11
15.66987298107771
 21
151
  0
LINE
  5
F6
100
AcDbEntity
  8
Aide PériPhérique
  6
ByLayer
 62
  256
370
   -1
100
AcDbLine
 10
15.66987298107769
 20
146
 11
15.66987298107771
 21
151
  0
CIRCLE
  5
F7
100
AcDbEntity
  8
Aide PériPhérique
  6
ByLayer
 62
  256
370
   -1
100
AcDbCircle
 10
15
 20
74.25000000000011
 40
3
  0
MTEXT
  5
F8
100
AcDbEntity
  8
Aide PériPhérique
  6
ByLayer
 62
  256
370
   -1
100
AcDbMText
 10
15
 20
74.25000000000011
 30
0
 40
4
 41
2.666666666666667
 71
    5
 72
    5
  1
A
  7
iso
210
0
220
0
230
1
 50
6.283185307179586
 73
    2
 44
0.96
  0
MTEXT
  5
F9
100
AcDbEntity
  8
Aide PériPhérique
  6
ByLayer
 62
  256
370
   -1
100
AcDbMText
 10
15.00000000000002
 20
222.7500000000001
 30
0
 40
4
 41
2.222222222222222
 71
    5
 72
    5
  1
B
  7
iso
210
0
220
0
230
1
 50
6.283185307179586
 73
    2
 44
0.96
  0
LINE
  5
FA
100
AcDbEntity
  8
Cadre Extérieur
  6
ByLayer
 62
  256
370
   -1
100
AcDbLine
 10
20
 20
287
 11
20
 21
10
  0
LINE
  5
FB
100
AcDbEntity
  8
Aide PériPhérique
  6
ByLayer
 62
  256
370
   -1
100
AcDbLine
 10
1.82e-014
 20
297
 11
0
 21
0
  0
LINE
  5
FC
100
AcDbEntity
  8
Cadre Extérieur
  6
ByLayer
 62
  256
370
   -1
100
AcDbLine
 10
20
 20
10
 11
410
 21
9.999999999999945
  0
LINE
  5
FD
100
AcDbEntity
  8
Cadre Extérieur
  6
ByLayer
 62
  256
370
   -1
100
AcDbLine
 10
373.600021
 20
65.25009399999996
 11
373.600021
 21
58.87505199999991
  0
LINE
  5
FE
100
AcDbEntity
  8
Cadre Extérieur
  6
ByLayer
 62
  256
370
   -1
100
AcDbLine
 10
397
 20
26.999987
 11
397
 21
14.25004199999935
  0
LINE
  5
FF
100
AcDbEntity
  8
Cadre Extérieur
  6
ByLayer
 62
  256
370
   -1
100
AcDbLine
 10
365.8000340000001
 20
14.25010700000141
 11
365.8000340000001
 21
10.00009799999988
  0
LINE
  5
100
100
AcDbEntity
  8
Cadre Extérieur
  6
ByLayer
 62
  256
370
   -1
100
AcDbLine
 10
303.400024
 20
65.25009699999998
 11
303.400024
 21
27.00005900000017
  0
LINE
  5
101
100
AcDbEntity
  8
Cadre Extérieur
  6
ByLayer
 62
  256
370
   -1
100
AcDbLine
 10
287.8000179999999
 20
48.25009000000014
 11
287.8000179999999
 21
27.00013600000004
  0
LINE
  5
102
100
AcDbEntity
  8
Cadre Extérieur
  6
ByLayer
 62
  256
370
   -1
100
AcDbLine
 10
277.400024
 20
65.25009000000004
 11
277.400024
 21
10.00009399999885
  0
LINE
  5
103
100
AcDbEntity
  8
Cadre Extérieur
  6
ByLayer
 62
  256
370
   -1
100
AcDbLine
 10
321.6000059999999
 20
65.25013900000003
 11
321.6000059999999
 21
10.00009700000059
  0
LINE
  5
104
100
AcDbEntity
  8
Cadre Extérieur
  6
ByLayer
 62
  256
370
   -1
100
AcDbLine
 10
269.6000059999999
 20
48.25008199999981
 11
269.6000369999999
 21
10.0000989999999
  0
LINE
  5
105
100
AcDbEntity
  8
Cadre Extérieur
  6
ByLayer
 62
  256
370
   -1
100
AcDbLine
 10
256.6000059999999
 20
48.2501010000002
 11
256.6000059999999
 21
10.0000910000006
  0
LINE
  5
106
100
AcDbEntity
  8
Cadre Extérieur
  6
ByLayer
 62
  256
370
   -1
100
AcDbLine
 10
230.600006
 20
48.25011300000001
 11
230.600006
 21
10.00009299999965
  0
LINE
  5
107
100
AcDbEntity
  8
Cadre Extérieur
  6
ByLayer
 62
  256
370
   -1
100
AcDbLine
 10
222.800018
 20
31.25007499999977
 11
321.6000059999999
 21
31.25009200000036
  0
LINE
  5
108
100
AcDbEntity
  8
Cadre Extérieur
  6
ByLayer
 62
  256
370
   -1
100
AcDbLine
 10
222.800018
 20
35.50007999999994
 11
321.6000059999999
 21
35.50011500000002
  0
LINE
  5
109
100
AcDbEntity
  8
Cadre Extérieur
  6
ByLayer
 62
  256
370
   -1
100
AcDbLine
 10
222.800018
 20
39.75011599999998
 11
321.6000369999999
 21
39.75006699999997
  0
LINE
  5
10A
100
AcDbEntity
  8
Cadre Extérieur
  6
ByLayer
 62
  256
370
   -1
100
AcDbLine
 10
222.800018
 20
44.00009699999989
 11
321.6000369999999
 21
44.00008599999977
  0
LINE
  5
10B
100
AcDbEntity
  8
Cadre Extérieur
  6
ByLayer
 62
  256
370
   -1
100
AcDbLine
 10
222.800018
 20
22.75005499999975
 11
277.400024
 21
22.75006100000023
  0
LINE
  5
10C
100
AcDbEntity
  8
Cadre Extérieur
  6
ByLayer
 62
  256
370
   -1
100
AcDbLine
 10
222.800018
 20
18.50005400000003
 11
277.400024
 21
18.50012200000026
  0
LINE
  5
10D
100
AcDbEntity
  8
Cadre Extérieur
  6
ByLayer
 62
  256
370
   -1
100
AcDbLine
 10
321.6000059999999
 20
58.87511999999988
 11
410
 21
58.87504000000014
  0
LINE
  5
10E
100
AcDbEntity
  8
Cadre Extérieur
  6
ByLayer
 62
  256
370
   -1
100
AcDbLine
 10
222.800018
 20
14.25008299999985
 11
410
 21
14.25008999999916
  0
LINE
  5
10F
100
AcDbEntity
  8
Cadre Extérieur
  6
ByLayer
 62
  256
370
   -1
100
AcDbLine
 10
222.800018
 20
48.25008599999984
 11
410.000061
 21
48.25010100000019
  0
LINE
  5
110
100
AcDbEntity
  8
Cadre Extérieur
  6
ByLayer
 62
  256
370
   -1
100
AcDbLine
 10
222.800018
 20
27.00010700000013
 11
410.000061
 21
26.99999300000035
  0
LINE
  5
111
100
AcDbEntity
  8
Cadre Extérieur
  6
ByLayer
 62
  256
370
   -1
100
AcDbLine
 10
222.800018
 20
65.25008599999994
 11
410
 21
65.25016599999992
  0
LINE
  5
112
100
AcDbEntity
  8
Cadre Extérieur
  6
ByLayer
 62
  256
370
   -1
100
AcDbLine
 10
410.000061
 20
65.25018100000015
 11
410
 21
9.999999999999945
  0
LINE
  5
113
100
AcDbEntity
  8
Cadre Extérieur
  6
ByLayer
 62
  256
370
   -1
100
AcDbLine
 10
410
 20
9.999999999999945
 11
222.800018
 21
10.00010099999966
  0
LINE
  5
114
100
AcDbEntity
  8
Cadre Extérieur
  6
ByLayer
 62
  256
370
   -1
100
AcDbLine
 10
222.800018
 20
65.25008599999994
 11
222.800018
 21
10.00010099999966
  0
LINE
  5
115
100
AcDbEntity
  8
Symbol ISO
  6
ByLayer
 62
  256
370
   -1
100
AcDbLine
 10
280.2711420000001
 20
57.24287599999997
 11
300.2711420000001
 21
57.24287599999987
  0
CIRCLE
  5
116
100
AcDbEntity
  8
Symbol ISO
  6
ByLayer
 62
  256
370
   -1
100
AcDbCircle
 10
295.4711420000001
 20
57.24287599999973
 40
2.8
  0
CIRCLE
  5
117
100
AcDbEntity
  8
Symbol ISO
  6
ByLayer
 62
  256
370
   -1
100
AcDbCircle
 10
295.4711420000001
 20
57.24287599999973
 40
1.6
  0
LINE
  5
118
100
AcDbEntity
  8
Symbol ISO
  6
ByLayer
 62
  256
370
   -1
100
AcDbLine
 10
282.6711419999999
 20
58.84287599999995
 11
282.6711419999999
 21
55.64287600000003
  0
LINE
  5
119
100
AcDbEntity
  8
Symbol ISO
  6
ByLayer
 62
  256
370
   -1
100
AcDbLine
 10
282.6711419999999
 20
55.64287600000003
 11
289.071142
 21
54.44287599999993
  0
LINE
  5
11A
100
AcDbEntity
  8
Symbol ISO
  6
ByLayer
 62
  256
370
   -1
100
AcDbLine
 10
289.071142
 20
60.04287600000005
 11
289.071142
 21
54.44287599999993
  0
LINE
  5
11B
100
AcDbEntity
  8
Symbol ISO
  6
ByLayer
 62
  256
370
   -1
100
AcDbLine
 10
282.6711419999999
 20
58.84287599999995
 11
289.071142
 21
60.04287600000005
  0
LINE
  5
11C
100
AcDbEntity
  8
Symbol ISO
  6
ByLayer
 62
  256
370
   -1
100
AcDbLine
 10
295.4711420000001
 20
52.44287599999988
 11
295.4711420000001
 21
62.04287600000004
  0
MTEXT
  5
11D
100
AcDbEntity
  8
text
  6
ByLayer
 62
  256
370
   -1
100
AcDbMText
 10
322.726257
 20
60.81260492786927
 30
0
 40
2.5
 41
18.88984131895054
 71
    7
 72
    5
  1
scale  1 : 1
  7
normal#0.500000#1.500000
210
0
220
0
230
1
 50
0
 73
    1
 44
0.96
  0
MTEXT
  5
11E
100
AcDbEntity
  8
text
  6
ByLayer
 62
  256
370
   -1
100
AcDbMText
 10
374.726242
 20
60.53487722222226
 30
0
 40
2.5
 41
9.722224238102887
 71
    7
 72
    5
  1
(mass)
  7
normal#0.500000#1.500000
210
0
220
0
230
1
 50
0
 73
    1
 44
0.96
  0
MTEXT
  5
11F
100
AcDbEntity
  8
text
  6
ByLayer
 62
  256
370
   -1
100
AcDbMText
 10
322.7620850000001
 20
54.51309666666654
 30
0
 40
2.5
 41
38.68055628571858
 71
    7
 72
    5
  1
(material, specification)
  7
normal#0.500000#1.500000
210
0
220
0
230
1
 50
0
 73
    1
 44
0.96
  0
MTEXT
  5
120
100
AcDbEntity
  8
text
  6
ByLayer
 62
  256
370
   -1
100
AcDbMText
 10
290.6053770000001
 20
44.87508999999979
 30
0
 40
2.5
 41
6.6666666666669
 71
    7
 72
    5
  1
date
  7
normal#0.500000#1.200000
210
0
220
0
230
1
 50
0
 73
    1
 44
0.96
  0
MTEXT
  5
121
100
AcDbEntity
  8
text
  6
ByLayer
 62
  256
370
   -1
100
AcDbMText
 10
308.1733400000001
 20
44.87508199999996
 30
0
 40
2.5
 41
7.500000000000348
 71
    7
 72
    5
  1
name
  7
normal#0.500000#1.200000
210
0
220
0
230
1
 50
0
 73
    1
 44
0.96
  0
MTEXT
  5
122
100
AcDbEntity
  8
text
  6
ByLayer
 62
  256
370
   -1
100
AcDbMText
 10
277.713043
 20
39.79171466666669
 30
0
 40
2.5
 41
8.611112396829338
 71
    7
 72
    5
  1
desig.
  7
normal#0.500000#1.200000
210
0
220
0
230
1
 50
0
 73
    1
 44
0.96
  0
MTEXT
  5
123
100
AcDbEntity
  8
text
  6
ByLayer
 62
  256
370
   -1
100
AcDbMText
 10
277.898956
 20
32.12510899999974
 30
0
 40
2.5
 41
7.500000000000234
 71
    7
 72
    5
  1
auth.
  7
normal#0.500000#1.200000
210
0
220
0
230
1
 50
0
 73
    1
 44
0.96
  0
MTEXT
  5
124
100
AcDbEntity
  8
text
  6
ByLayer
 62
  256
370
   -1
100
AcDbMText
 10
223.114746
 20
10.87509599999959
 30
0
 40
2.5
 41
3.888888888888967
 71
    7
 72
    5
  1
loc
  7
normal#0.500000#1.200000
210
0
220
0
230
1
 50
0
 73
    1
 44
0.96
  0
MTEXT
  5
125
100
AcDbEntity
  8
text
  6
ByLayer
 62
  256
370
   -1
100
AcDbMText
 10
236.185455
 20
10.0417616666664
 30
0
 40
2.5
 41
10.55555555555614
 71
    7
 72
    5
  1
change
  7
normal#0.500000#1.200000
210
0
220
0
230
1
 50
0
 73
    1
 44
0.96
  0
MTEXT
  5
126
100
AcDbEntity
  8
text
  6
ByLayer
 62
  256
370
   -1
100
AcDbMText
 10
258.411652
 20
10.87513200000014
 30
0
 40
2.5
 41
6.6666666666669
 71
    7
 72
    5
  1
date
  7
normal#0.500000#1.200000
210
0
220
0
230
1
 50
0
 73
    1
 44
0.96
  0
MTEXT
  5
127
100
AcDbEntity
  8
text
  6
ByLayer
 62
  256
370
   -1
100
AcDbMText
 10
269.6750489999999
 20
10.87506499999954
 30
0
 40
2.5
 41
7.500000000000348
 71
    7
 72
    5
  1
name
  7
normal#0.200000#1.200000
210
0
220
0
230
1
 50
0
 73
    1
 44
0.96
  0
MTEXT
  5
128
100
AcDbEntity
  8
text
  6
ByLayer
 62
  256
370
   -1
100
AcDbMText
 10
278.6523440000001
 20
10.04172966666624
 30
0
 40
2.5
 41
11.38888888888901
 71
    7
 72
    5
  1
project
  7
normal#0.500000#1.200000
210
0
220
0
230
1
 50
0
 73
    1
 44
0.96
  0
MTEXT
  5
129
100
AcDbEntity
  8
text
  6
ByLayer
 62
  256
370
   -1
100
AcDbMText
 10
323.2767329999999
 20
10.04178766666714
 30
0
 40
2.5
 41
13.33333461905145
 71
    7
 72
    5
  1
replaces
  7
normal#0.500000#1.500000
210
0
220
0
230
1
 50
0
 73
    1
 44
0.96
  0
MTEXT
  5
12A
100
AcDbEntity
  8
text
  6
ByLayer
 62
  256
370
   -1
100
AcDbMText
 10
367.4767300000001
 20
10.04186066666497
 30
0
 40
2.5
 41
19.09722222222246
 71
    7
 72
    5
  1
replaced by
  7
normal#0.500000#1.500000
210
0
220
0
230
1
 50
0
 73
    1
 44
0.96
  0
MTEXT
  5
12B
100
AcDbEntity
  8
text
  6
ByLayer
 62
  256
370
   -1
100
AcDbMText
 10
399.839905
 20
15.23756994229673
 30
0
 40
2
 41
6.889650832938209
 71
    7
 72
    5
  1
sheet
  7
normal#0.500000#0.900000
210
0
220
0
230
1
 50
0
 73
    1
 44
0.96
  0
MTEXT
  5
12C
100
AcDbEntity
  8
text
  6
ByLayer
 62
  256
370
   -1
100
AcDbMText
 10
322.496576
 20
27.91470066666627
 30
0
 40
2.5
 41
16.59722222222269
 71
    7
 72
    5
  1
part name
  7
normal#0.500000#0.900000
210
0
220
0
230
1
 50
0
 73
    1
 44
0.96
  0
MTEXT
  5
12D
100
AcDbEntity
  8
text
  6
ByLayer
 62
  256
370
   -1
100
AcDbMText
 10
322.2766879999999
 20
14.5014836666667
 30
0
 40
2.5
 41
20.2083333333338
 71
    7
 72
    5
  1
part number
  7
normal#0.500000#0.900000
210
0
220
0
230
1
 50
0
 73
    1
 44
0.96
  0
CIRCLE
  5
12E
100
AcDbEntity
  8
Aide PériPhérique
  6
ByLayer
 62
  256
370
   -1
100
AcDbCircle
 10
414.9999999999998
 20
222.7499999999999
 40
3
  0
LINE
  5
12F
100
AcDbEntity
  8
Aide PériPhérique
  6
ByLayer
 62
  256
370
   -1
100
AcDbLine
 10
410.0000000000002
 20
148.5
 11
414.3301270189227
 21
146.0000000000001
  0
LINE
  5
130
100
AcDbEntity
  8
Aide PériPhérique
  6
ByLayer
 62
  256
370
   -1
100
AcDbLine
 10
410.0000000000002
 20
148.5
 11
414.3301270189222
 21
150.9999999999998
  0
LINE
  5
131
100
AcDbEntity
  8
Aide PériPhérique
  6
ByLayer
 62
  256
370
   -1
100
AcDbLine
 10
414.3301270189227
 20
146.0000000000001
 11
414.3301270189222
 21
150.9999999999998
  0
CIRCLE
  5
132
100
AcDbEntity
  8
Aide PériPhérique
  6
ByLayer
 62
  256
370
   -1
100
AcDbCircle
 10
415
 20
74.25000000000007
 40
3
  0
MTEXT
  5
133
100
AcDbEntity
  8
Aide PériPhérique
  6
ByLayer
 62
  256
370
   -1
100
AcDbMText
 10
415
 20
74.25000000000007
 30
0
 40
4
 41
2.666666666666667
 71
    5
 72
    5
  1
A
  7
iso
210
0
220
0
230
1
 50
6.283185307179586
 73
    2
 44
0.96
  0
MTEXT
  5
134
100
AcDbEntity
  8
Aide PériPhérique
  6
ByLayer
 62
  256
370
   -1
100
AcDbMText
 10
414.9999999999998
 20
222.7499999999999
 30
0
 40
4
 41
2.222222222222222
 71
    5
 72
    5
  1
B
  7
iso
210
0
220
0
230
1
 50
6.283185307179586
 73
    2
 44
0.96
  0
LINE
  5
135
100
AcDbEntity
  8
Cadre Extérieur
  6
ByLayer
 62
  256
370
   -1
100
AcDbLine
 10
20
 20
287
 11
410
 21
286.9999999999999
  0
LINE
  5
136
100
AcDbEntity
  8
Cadre Extérieur
  6
ByLayer
 62
  256
370
   -1
100
AcDbLine
 10
410
 20
286.9999999999999
 11
410
 21
9.999999999999945
  0
LINE
  5
137
100
AcDbEntity
  8
Aide PériPhérique
  6
ByLayer
 62
  256
370
   -1
100
AcDbLine
 10
420
 20
297
 11
1.82e-014
 21
297
  0
LINE
  5
138
100
AcDbEntity
  8
Aide PériPhérique
  6
ByLayer
 62
  256
370
   -1
100
AcDbLine
 10
125
 20
0
 11
125
 21
9.999999999999902
  0
LINE
  5
139
100
AcDbEntity
  8
Aide PériPhérique
  6
ByLayer
 62
  256
370
   -1
100
AcDbLine
 10
230
 20
0
 11
230
 21
10.00000000000048
  0
LINE
  5
13A
100
AcDbEntity
  8
Aide PériPhérique
  6
ByLayer
 62
  256
370
   -1
100
AcDbLine
 10
124.9999760000001
 20
9.999976000000135
 11
122.499976
 21
5.669848981077905
  0
LINE
  5
13B
100
AcDbEntity
  8
Aide PériPhérique
  6
ByLayer
 62
  256
370
   -1
100
AcDbLine
 10
124.9999760000001
 20
9.999976000000135
 11
127.4999760000001
 21
5.669848981077732
  0
LINE
  5
13C
100
AcDbEntity
  8
Aide PériPhérique
  6
ByLayer
 62
  256
370
   -1
100
AcDbLine
 10
122.499976
 20
5.669848981077905
 11
127.4999760000001
 21
5.669848981077732
  0
CIRCLE
  5
13D
100
AcDbEntity
  8
Aide PériPhérique
  6
ByLayer
 62
  256
370
   -1
100
AcDbCircle
 10
177.4999999999999
 20
4.999999999999019
 40
3
  0
LINE
  5
13E
100
AcDbEntity
  8
Aide PériPhérique
  6
ByLayer
 62
  256
370
   -1
100
AcDbLine
 10
229.9999760000001
 20
9.999976000000681
 11
227.4999760000001
 21
5.66984898107723
  0
LINE
  5
13F
100
AcDbEntity
  8
Aide PériPhérique
  6
ByLayer
 62
  256
370
   -1
100
AcDbLine
 10
229.9999760000001
 20
9.999976000000681
 11
232.4999760000001
 21
5.669848981077044
  0
LINE
  5
140
100
AcDbEntity
  8
Aide PériPhérique
  6
ByLayer
 62
  256
370
   -1
100
AcDbLine
 10
227.4999760000001
 20
5.66984898107723
 11
232.4999760000001
 21
5.669848981077044
  0
CIRCLE
  5
141
100
AcDbEntity
  8
Aide PériPhérique
  6
ByLayer
 62
  256
370
   -1
100
AcDbCircle
 10
72.49999999999999
 20
4.999999999999932
 40
3
  0
MTEXT
  5
142
100
AcDbEntity
  8
Aide PériPhérique
  6
ByLayer
 62
  256
370
   -1
100
AcDbMText
 10
72.49999999999999
 20
4.999999999999932
 30
0
 40
4
 41
0.8888888888888888
 71
    5
 72
    5
  1
1
  7
iso
210
0
220
0
230
1
 50
0
 73
    2
 44
0.96
  0
MTEXT
  5
143
100
AcDbEntity
  8
Aide PériPhérique
  6
ByLayer
 62
  256
370
   -1
100
AcDbMText
 10
177.4999999999999
 20
4.999999999999019
 30
0
 40
4
 41
1.777777777777778
 71
    5
 72
    5
  1
2
  7
iso
210
0
220
0
230
1
 50
0
 73
    2
 44
0.96
  0
CIRCLE
  5
144
100
AcDbEntity
  8
Aide PériPhérique
  6
ByLayer
 62
  256
370
   -1
100
AcDbCircle
 10
278
 20
5.000000000000104
 40
3
  0
MTEXT
  5
145
100
AcDbEntity
  8
Aide PériPhérique
  6
ByLayer
 62
  256
370
   -1
100
AcDbMText
 10
278
 20
5.000000000000104
 30
0
 40
4
 41
1.777777777778026
 71
    5
 72
    5
  1
3
  7
iso
210
0
220
0
230
1
 50
0
 73
    2
 44
0.96
  0
LINE
  5
146
100
AcDbEntity
  8
Aide PériPhérique
  6
ByLayer
 62
  256
370
   -1
100
AcDbLine
 10
315
 20
9.999975999999624
 11
312.5
 21
5.66984898107766
  0
LINE
  5
147
100
AcDbEntity
  8
Aide PériPhérique
  6
ByLayer
 62
  256
370
   -1
100
AcDbLine
 10
315
 20
9.999975999999624
 11
317.5
 21
5.669848981077923
  0
LINE
  5
148
100
AcDbEntity
  8
Aide PériPhérique
  6
ByLayer
 62
  256
370
   -1
100
AcDbLine
 10
312.5
 20
5.66984898107766
 11
317.5
 21
5.669848981077923
  0
CIRCLE
  5
149
100
AcDbEntity
  8
Aide PériPhérique
  6
ByLayer
 62
  256
370
   -1
100
AcDbCircle
 10
363.0000239999999
 20
4.999999999999614
 40
3
  0
MTEXT
  5
14A
100
AcDbEntity
  8
Aide PériPhérique
  6
ByLayer
 62
  256
370
   -1
100
AcDbMText
 10
363.0000239999999
 20
4.999999999999614
 30
0
 40
4
 41
2.222222222222222
 71
    5
 72
    5
  1
4
  7
iso
210
0
220
0
230
1
 50
0
 73
    2
 44
0.96
  0
LINE
  5
14B
100
AcDbEntity
  8
Aide PériPhérique
  6
ByLayer
 62
  256
370
   -1
100
AcDbLine
 10
420
 20
0
 11
420
 21
297
  0
LINE
  5
14C
100
AcDbEntity
  8
Aide PériPhérique
  6
ByLayer
 62
  256
370
   -1
100
AcDbLine
 10
3.55e-014
 20
0
 11
420
 21
0
  0
LINE
  5
14D
100
AcDbEntity
  8
Aide PériPhérique
  6
ByLayer
 62
  256
370
   -1
100
AcDbLine
 10
124.9999999999999
 20
297.0000000000002
 11
125
 21
287
  0
LINE
  5
14E
100
AcDbEntity
  8
Aide PériPhérique
  6
ByLayer
 62
  256
370
   -1
100
AcDbLine
 10
229.9999999999999
 20
297.0000000000002
 11
230
 21
287
  0
LINE
  5
14F
100
AcDbEntity
  8
Aide PériPhérique
  6
ByLayer
 62
  256
370
   -1
100
AcDbLine
 10
124.999976
 20
287.0000239999999
 11
122.4999759999999
 21
291.3301510189223
  0
LINE
  5
150
100
AcDbEntity
  8
Aide PériPhérique
  6
ByLayer
 62
  256
370
   -1
100
AcDbLine
 10
124.999976
 20
287.0000239999999
 11
127.4999760000001
 21
291.3301510189222
  0
LINE
  5
151
100
AcDbEntity
  8
Aide PériPhérique
  6
ByLayer
 62
  256
370
   -1
100
AcDbLine
 10
122.4999759999999
 20
291.3301510189223
 11
127.4999760000001
 21
291.3301510189222
  0
CIRCLE
  5
152
100
AcDbEntity
  8
Aide PériPhérique
  6
ByLayer
 62
  256
370
   -1
100
AcDbCircle
 10
177.4999999999999
 20
292.0000000000001
 40
3
  0
LINE
  5
153
100
AcDbEntity
  8
Aide PériPhérique
  6
ByLayer
 62
  256
370
   -1
100
AcDbLine
 10
229.9999760000001
 20
287.000024
 11
227.4999760000001
 21
291.3301510189222
  0
LINE
  5
154
100
AcDbEntity
  8
Aide PériPhérique
  6
ByLayer
 62
  256
370
   -1
100
AcDbLine
 10
229.9999760000001
 20
287.000024
 11
232.4999759999999
 21
291.3301510189223
  0
LINE
  5
155
100
AcDbEntity
  8
Aide PériPhérique
  6
ByLayer
 62
  256
370
   -1
100
AcDbLine
 10
227.4999760000001
 20
291.3301510189222
 11
232.4999759999999
 21
291.3301510189223
  0
CIRCLE
  5
156
100
AcDbEntity
  8
Aide PériPhérique
  6
ByLayer
 62
  256
370
   -1
100
AcDbCircle
 10
72.49999999999997
 20
292
 40
3
  0
MTEXT
  5
157
100
AcDbEntity
  8
Aide PériPhérique
  6
ByLayer
 62
  256
370
   -1
100
AcDbMText
 10
72.49999999999997
 20
292
 30
0
 40
4
 41
0.8888888888888888
 71
    5
 72
    5
  1
1
  7
iso
210
0
220
0
230
1
 50
0
 73
    2
 44
0.96
  0
MTEXT
  5
158
100
AcDbEntity
  8
Aide PériPhérique
  6
ByLayer
 62
  256
370
   -1
100
AcDbMText
 10
177.4999999999999
 20
292.0000000000001
 30
0
 40
4
 41
1.777777777777778
 71
    5
 72
    5
  1
2
  7
iso
210
0
220
0
230
1
 50
0
 73
    2
 44
0.96
  0
CIRCLE
  5
159
100
AcDbEntity
  8
Aide PériPhérique
  6
ByLayer
 62
  256
370
   -1
100
AcDbCircle
 10
278
 20
292
 40
3
  0
MTEXT
  5
15A
100
AcDbEntity
  8
Aide PériPhérique
  6
ByLayer
 62
  256
370
   -1
100
AcDbMText
 10
278
 20
292
 30
0
 40
4
 41
1.777777777778026
 71
    5
 72
    5
  1
3
  7
iso
210
0
220
0
230
1
 50
0
 73
    2
 44
0.96
  0
LINE
  5
15B
100
AcDbEntity
  8
Aide PériPhérique
  6
ByLayer
 62
  256
370
   -1
100
AcDbLine
 10
315
 20
287.0000240000001
 11
312.4999999999999
 21
291.3301510189223
  0
LINE
  5
15C
100
AcDbEntity
  8
Aide PériPhérique
  6
ByLayer
 62
  256
370
   -1
100
AcDbLine
 10
315
 20
287.0000240000001
 11
317.4999999999999
 21
291.3301510189222
  0
LINE
  5
15D
100
AcDbEntity
  8
Aide PériPhérique
  6
ByLayer
 62
  256
370
   -1
100
AcDbLine
 10
312.4999999999999
 20
291.3301510189223
 11
317.4999999999999
 21
291.3301510189222
  0
CIRCLE
  5
15E
100
AcDbEntity
  8
Aide PériPhérique
  6
ByLayer
 62
  256
370
   -1
100
AcDbCircle
 10
363.0000239999999
 20
292.0000000000003
 40
3
  0
MTEXT
  5
15F
100
AcDbEntity
  8
Aide PériPhérique
  6
ByLayer
 62
  256
370
   -1
100
AcDbMText
 10
363.0000239999999
 20
292.0000000000003
 30
0
 40
4
 41
2.222222222222222
 71
    5
 72
    5
  1
4
  7
iso
210
0
220
0
230
1
 50
0
 73
    2
 44
0.96
  0
MTEXT
  5
160
100
AcDbEntity
  8
text
  6
ByLayer
 62
  256
370
   -1
100
AcDbMText
 10
223.114746
 20
15.12517929166619
 30
0
 40
2.5
 41
3.055555555555555
 71
    7
 72
    5
  1
A1
  7
normal#0.500000#1.200000
210
0
220
0
230
1
 50
0
 73
    1
 44
0.96
  0
MTEXT
  5
161
100
AcDbEntity
  8
text
  6
ByLayer
 62
  256
370
   -1
100
AcDbMText
 10
232.2019345855434
 20
14.2918448093763
 30
0
 40
2.5
 41
20.76389017460735
 71
    7
 72
    5
  1
initial design
  7
normal#0.500000#1.200000
210
0
220
0
230
1
 50
0
 73
    1
 44
0.96
  0
MTEXT
  5
162
100
AcDbEntity
  8
text
  6
ByLayer
 62
  256
370
   -1
100
AcDbMText
 10
256.6190678060468
 20
15.12521522463579
 30
0
 40
2.5
 41
13.05555555555556
 71
    7
 72
    5
  1
01/01/01
  7
iso8859-11
210
0
220
0
230
1
 50
0
 73
    1
 44
0.96
  0
MTEXT
  5
163
100
AcDbEntity
  8
text
  6
ByLayer
 62
  256
370
   -1
100
AcDbMText
 10
270.6709291036141
 20
15.12514832890515
 30
0
 40
2.5
 41
5.555555555555865
 71
    7
 72
    5
  1
DDil
  7
normal#0.200000#1.200000
210
0
220
0
230
1
 50
0
 73
    1
 44
0.96
  0
MTEXT
  5
164
100
AcDbEntity
  8
text
  6
ByLayer
 62
  256
370
   -1
100
AcDbMText
 10
288.1130369999998
 20
40.62504166667172
 30
0
 40
2.5
 41
14.44444444444444
 71
    7
 72
    5
  1
07/01/04
  7
normal#0.500000#1.200000
210
0
220
0
230
1
 50
0
 73
    1
 44
0.96
  0
MTEXT
  5
165
100
AcDbEntity
  8
text
  6
ByLayer
 62
  256
370
   -1
100
AcDbMText
 10
288.2989499999999
 20
36.3751386666716
 30
0
 40
2.5
 41
4.722222222222339
 71
    7
 72
    5
  1
tbd
  7
normal#0.500000#1.200000
210
0
220
0
230
1
 50
0
 73
    1
 44
0.96
  0
MTEXT
  5
166
100
AcDbEntity
  8
text
  6
ByLayer
 62
  256
370
   -1
100
AcDbMText
 10
288.2989499999999
 20
32.12510266667161
 30
0
 40
2.5
 41
4.722222222222339
 71
    7
 72
    5
  1
tbd
  7
normal#0.500000#1.200000
210
0
220
0
230
1
 50
0
 73
    1
 44
0.96
  0
MTEXT
  5
167
100
AcDbEntity
  8
text
  6
ByLayer
 62
  256
370
   -1
100
AcDbMText
 10
303.713043
 20
40.62503216667014
 30
0
 40
2.5
 41
3.055555555555672
 71
    7
 72
    5
  1
dil
  7
normal#0.500000#1.200000
210
0
220
0
230
1
 50
0
 73
    1
 44
0.96
  0
MTEXT
  5
168
100
AcDbEntity
  8
text
  6
ByLayer
 62
  256
370
   -1
100
AcDbMText
 10
303.898956
 20
36.37512916667013
 30
0
 40
2.5
 41
3.055555555555672
 71
    7
 72
    5
  1
dil
  7
normal#0.500000#1.200000
210
0
220
0
230
1
 50
0
 73
    1
 44
0.96
  0
MTEXT
  5
169
100
AcDbEntity
  8
text
  6
ByLayer
 62
  256
370
   -1
100
AcDbMText
 10
303.898956
 20
32.12509316667014
 30
0
 40
2.5
 41
3.055555555555672
 71
    7
 72
    5
  1
dil
  7
normal#0.500000#1.200000
210
0
220
0
230
1
 50
0
 73
    1
 44
0.96
  0
MTEXT
  5
16A
100
AcDbEntity
  8
text
  6
ByLayer
 62
  256
370
   -1
100
AcDbMText
 10
364.9090859750838
 20
38.6401480202294
 30
0
 40
4
 41
13.66819055476531
 71
    5
 72
    5
  1
title\Psub t
  7
iso
210
0
220
0
230
1
 50
0
 73
    2
 44
0.96
  0
MTEXT
  5
16B
100
AcDbEntity
  8
text
  6
ByLayer
 62
  256
370
   -1
100
AcDbMText
 10
368.494254348095
 20
20.51513013445166
 30
0
 40
8
 41
38.22222222222321
 71
    5
 72
    5
  1
DD00NN
  7
iso
210
0
220
0
230
1
 50
0
 73
    2
 44
0.96
  0
MTEXT
  5
16C
100
AcDbEntity
  8
text
  6
ByLayer
 62
  256
370
   -1
100
AcDbMText
 10
293.7897215674873
 20
10.04173023270097
 30
0
 40
2.5
 41
11.38888888888901
 71
    7
 72
    5
  1
project
  7
normal#0.500000#1.200000
210
0
220
0
230
1
 50
0
 73
    1
 44
0.96
  0
MTEXT
  5
16D
100
AcDbEntity
  8
text
  6
ByLayer
 62
  256
370
   -1
100
AcDbMText
 10
403.1508819538676
 20
21.71018625878866
 30
0
 40
4
 41
6.222222222222221
 71
    5
 72
    5
  1
1/1
  7
iso
210
0
220
0
230
1
 50
0
 73
    2
 44
0.96
  0
MTEXT
  5
16E
100
AcDbEntity
  8
text
  6
ByLayer
 62
  256
370
   -1
100
AcDbMText
 10
277.898956
 20
36.37514499999961
 30
0
 40
2.5
 41
8.333333333333567
 71
    7
 72
    5
  1
check
  7
normal#0.500000#1.200000
210
0
220
0
230
1
 50
0
 73
    1
 44
0.96
  0
ENDBLK
  5
64
330
62
100
AcDbEntity
  8
0
100
AcDbBlockEnd
  0
BLOCK
  5
66
330
65
100
AcDbEntity
  8
0
100
AcDbBlockBegin
  2
a3-1
 70
    0
 10
0
 20
0
  3
a3-1
  1

  0
HATCH
  5
16F
100
AcDbEntity
  8
6_hatch
  6
ByLayer
 62
  256
370
   -1
100
AcDbHatch
 10
0
 20
0
 30
0
210
0
220
0
230
1
  2
ansi31
 70
    0
 71
    0
 91
    1
 92
    0
 93
    3
 72
    1
 10
124.999976
 20
287.0000239999999
 11
122.4999759999999
 21
291.3301510189223
 72
    1
 10
122.4999759999999
 20
291.3301510189223
 11
127.499976
 21
291.3301510189222
 72
    1
 10
127.499976
 20
291.3301510189222
 11
124.999976
 21
287.0000239999999
 97
    0
 75
    0
 76
    1
 52
4.71238898038469
 41
0.5
 77
    0
 78
    0
 98
    0
  0
HATCH
  5
170
100
AcDbEntity
  8
6_hatch
  6
ByLayer
 62
  256
370
   -1
100
AcDbHatch
 10
0
 20
0
 30
0
210
0
220
0
230
1
  2
ansi31
 70
    0
 71
    0
 91
    1
 92
    0
 93
    3
 72
    1
 10
229.9999760000001
 20
287.0000239999999
 11
227.4999760000001
 21
291.3301510189222
 72
    1
 10
227.4999760000001
 20
291.3301510189222
 11
232.4999759999999
 21
291.3301510189223
 72
    1
 10
232.4999759999999
 20
291.3301510189223
 11
229.9999760000001
 21
287.0000239999999
 97
    0
 75
    0
 76
    1
 52
4.71238898038469
 41
0.5
 77
    0
 78
    0
 98
    0
  0
HATCH
  5
171
100
AcDbEntity
  8
6_hatch
  6
ByLayer
 62
  256
370
   -1
100
AcDbHatch
 10
0
 20
0
 30
0
210
0
220
0
230
1
  2
ansi31
 70
    0
 71
    0
 91
    1
 92
    0
 93
    3
 72
    1
 10
314.9999999999999
 20
287.0000240000001
 11
312.4999999999999
 21
291.3301510189223
 72
    1
 10
312.4999999999999
 20
291.3301510189223
 11
317.4999999999999
 21
291.3301510189223
 72
    1
 10
317.4999999999999
 20
291.3301510189223
 11
314.9999999999999
 21
287.0000240000001
 97
    0
 75
    0
 76
    1
 52
4.71238898038469
 41
0.5
 77
    0
 78
    0
 98
    0
  0
HATCH
  5
172
100
AcDbEntity
  8
6_hatch
  6
ByLayer
 62
  256
370
   -1
100
AcDbHatch
 10
0
 20
0
 30
0
210
0
220
0
230
1
  2
ansi31
 70
    0
 71
    0
 91
    1
 92
    0
 93
    3
 72
    1
 10
315
 20
9.999976000000061
 11
312.5
 21
5.669848981077877
 72
    1
 10
312.5
 20
5.669848981077877
 11
317.5
 21
5.669848981077905
 72
    1
 10
317.5
 20
5.669848981077905
 11
315
 21
9.999976000000061
 97
    0
 75
    0
 76
    1
 52
4.71238898038469
 41
0.5
 77
    0
 78
    0
 98
    0
  0
HATCH
  5
173
100
AcDbEntity
  8
6_hatch
  6
ByLayer
 62
  256
370
   -1
100
AcDbHatch
 10
0
 20
0
 30
0
210
0
220
0
230
1
  2
ansi31
 70
    0
 71
    0
 91
    1
 92
    0
 93
    3
 72
    1
 10
229.9999760000001
 20
9.999976000000089
 11
227.4999760000001
 21
5.669848981077877
 72
    1
 10
227.4999760000001
 20
5.669848981077877
 11
232.4999760000001
 21
5.669848981077877
 72
    1
 10
232.4999760000001
 20
5.669848981077877
 11
229.9999760000001
 21
9.999976000000089
 97
    0
 75
    0
 76
    1
 52
4.71238898038469
 41
0.5
 77
    0
 78
    0
 98
    0
  0
HATCH
  5
174
100
AcDbEntity
  8
6_hatch
  6
ByLayer
 62
  256
370
   -1
100
AcDbHatch
 10
0
 20
0
 30
0
210
0
220
0
230
1
  2
ansi31
 70
    0
 71
    0
 91
    1
 92
    0
 93
    3
 72
    1
 10
124.9999760000001
 20
9.999976000000061
 11
122.499976
 21
5.669848981077848
 72
    1
 10
122.499976
 20
5.669848981077848
 11
127.4999760000001
 21
5.669848981077848
 72
    1
 10
127.4999760000001
 20
5.669848981077848
 11
124.9999760000001
 21
9.999976000000061
 97
    0
 75
    0
 76
    1
 52
4.71238898038469
 41
0.5
 77
    0
 78
    0
 98
    0
  0
HATCH
  5
175
100
AcDbEntity
  8
6_hatch
  6
ByLayer
 62
  256
370
   -1
100
AcDbHatch
 10
0
 20
0
 30
0
210
0
220
0
230
1
  2
ansi31
 70
    0
 71
    0
 91
    1
 92
    0
 93
    3
 72
    1
 10
410.0000000000002
 20
148.5000000000001
 11
414.3301270189227
 21
146.0000000000002
 72
    1
 10
414.3301270189227
 20
146.0000000000002
 11
414.3301270189222
 21
150.9999999999998
 72
    1
 10
414.3301270189222
 20
150.9999999999998
 11
410.0000000000002
 21
148.5000000000001
 97
    0
 75
    0
 76
    1
 52
3.141592653589793
 41
0.5
 77
    0
 78
    0
 98
    0
  0
HATCH
  5
176
100
AcDbEntity
  8
6_hatch
  6
ByLayer
 62
  256
370
   -1
100
AcDbHatch
 10
0
 20
0
 30
0
210
0
220
0
230
1
  2
ansi31
 70
    0
 71
    0
 91
    1
 92
    0
 93
    3
 72
    1
 10
19.99999999999989
 20
148.5
 11
15.66987298107769
 21
146
 72
    1
 10
15.66987298107769
 20
146
 11
15.66987298107769
 21
151
 72
    1
 10
15.66987298107769
 20
151
 11
19.99999999999989
 21
148.5
 97
    0
 75
    0
 76
    1
 52
0
 41
0.5
 77
    0
 78
    0
 98
    0
  0
CIRCLE
  5
177
100
AcDbEntity
  8
Aide PériPhérique
  6
ByLayer
 62
  256
370
   -1
100
AcDbCircle
 10
15.00000000000003
 20
222.7500000000001
 40
3
  0
LINE
  5
178
100
AcDbEntity
  8
Aide PériPhérique
  6
ByLayer
 62
  256
370
   -1
100
AcDbLine
 10
19.99999999999989
 20
148.5
 11
15.66987298107769
 21
146
  0
LINE
  5
179
100
AcDbEntity
  8
Aide PériPhérique
  6
ByLayer
 62
  256
370
   -1
100
AcDbLine
 10
19.99999999999989
 20
148.5
 11
15.66987298107769
 21
151
  0
LINE
  5
17A
100
AcDbEntity
  8
Aide PériPhérique
  6
ByLayer
 62
  256
370
   -1
100
AcDbLine
 10
15.66987298107769
 20
146
 11
15.66987298107769
 21
151
  0
CIRCLE
  5
17B
100
AcDbEntity
  8
Aide PériPhérique
  6
ByLayer
 62
  256
370
   -1
100
AcDbCircle
 10
15
 20
74.25000000000011
 40
3
  0
MTEXT
  5
17C
100
AcDbEntity
  8
Aide PériPhérique
  6
ByLayer
 62
  256
370
   -1
100
AcDbMText
 10
15
 20
74.25000000000011
 30
0
 40
4
 41
2.666666666666667
 71
    5
 72
    5
  1
A
  7
iso
210
0
220
0
230
1
 50
6.283185307179586
 73
    2
 44
0.96
  0
MTEXT
  5
17D
100
AcDbEntity
  8
Aide PériPhérique
  6
ByLayer
 62
  256
370
   -1
100
AcDbMText
 10
15.00000000000003
 20
222.7500000000001
 30
0
 40
4
 41
2.222222222222222
 71
    5
 72
    5
  1
B
  7
iso
210
0
220
0
230
1
 50
6.283185307179586
 73
    2
 44
0.96
  0
LINE
  5
17E
100
AcDbEntity
  8
Cadre Extérieur
  6
CONTINUOUS
 62
    7
370
    0
100
AcDbLine
 10
20.00000000000002
 20
287
 11
20
 21
10
  0
LINE
  5
17F
100
AcDbEntity
  8
Aide PériPhérique
  6
ByLayer
 62
  256
370
   -1
100
AcDbLine
 10
2.57e-014
 20
297
 11
0
 21
0
  0
LINE
  5
180
100
AcDbEntity
  8
Cadre Extérieur
  6
CONTINUOUS
 62
    7
370
    0
100
AcDbLine
 10
20
 20
10
 11
410
 21
10
  0
LINE
  5
181
100
AcDbEntity
  8
Cadre Extérieur
  6
CONTINUOUS
 62
    7
370
    0
100
AcDbLine
 10
373.600021
 20
65.250094
 11
373.600021
 21
58.875052
  0
LINE
  5
182
100
AcDbEntity
  8
Cadre Extérieur
  6
CONTINUOUS
 62
    7
370
    0
100
AcDbLine
 10
397
 20
26.999987
 11
397
 21
14.250042
  0
LINE
  5
183
100
AcDbEntity
  8
Cadre Extérieur
  6
CONTINUOUS
 62
    7
370
    0
100
AcDbLine
 10
365.8000340000001
 20
14.250107
 11
365.8000340000001
 21
10.000098
  0
LINE
  5
184
100
AcDbEntity
  8
Cadre Extérieur
  6
CONTINUOUS
 62
    7
370
    0
100
AcDbLine
 10
303.400024
 20
65.250097
 11
303.400024
 21
27.000059
  0
LINE
  5
185
100
AcDbEntity
  8
Cadre Extérieur
  6
CONTINUOUS
 62
    7
370
    0
100
AcDbLine
 10
287.8000179999999
 20
48.25009
 11
287.8000179999999
 21
27.000136
  0
LINE
  5
186
100
AcDbEntity
  8
Cadre Extérieur
  6
CONTINUOUS
 62
    7
370
    0
100
AcDbLine
 10
277.400024
 20
65.25009
 11
277.400024
 21
10.000094
  0
LINE
  5
187
100
AcDbEntity
  8
Cadre Extérieur
  6
CONTINUOUS
 62
    7
370
    0
100
AcDbLine
 10
321.6000059999999
 20
65.250139
 11
321.6000059999999
 21
10.000097
  0
LINE
  5
188
100
AcDbEntity
  8
Cadre Extérieur
  6
CONTINUOUS
 62
    7
370
    0
100
AcDbLine
 10
269.6000059999999
 20
48.250082
 11
269.6000369999999
 21
10.000099
  0
LINE
  5
189
100
AcDbEntity
  8
Cadre Extérieur
  6
CONTINUOUS
 62
    7
370
    0
100
AcDbLine
 10
256.6000059999999
 20
48.250101
 11
256.6000059999999
 21
10.000091
  0
LINE
  5
18A
100
AcDbEntity
  8
Cadre Extérieur
  6
CONTINUOUS
 62
    7
370
    0
100
AcDbLine
 10
230.600006
 20
48.250113
 11
230.600006
 21
10.000093
  0
LINE
  5
18B
100
AcDbEntity
  8
Cadre Extérieur
  6
CONTINUOUS
 62
    7
370
    0
100
AcDbLine
 10
222.800018
 20
31.250075
 11
321.6000059999999
 21
31.250092
  0
LINE
  5
18C
100
AcDbEntity
  8
Cadre Extérieur
  6
CONTINUOUS
 62
    7
370
    0
100
AcDbLine
 10
222.800018
 20
35.50008
 11
321.6000059999999
 21
35.500115
  0
LINE
  5
18D
100
AcDbEntity
  8
Cadre Extérieur
  6
CONTINUOUS
 62
    7
370
    0
100
AcDbLine
 10
222.800018
 20
39.750116
 11
321.6000369999999
 21
39.750067
  0
LINE
  5
18E
100
AcDbEntity
  8
Cadre Extérieur
  6
CONTINUOUS
 62
    7
370
    0
100
AcDbLine
 10
222.800018
 20
44.000097
 11
321.6000369999999
 21
44.000086
  0
LINE
  5
18F
100
AcDbEntity
  8
Cadre Extérieur
  6
CONTINUOUS
 62
    7
370
    0
100
AcDbLine
 10
222.800018
 20
22.750055
 11
277.400024
 21
22.750061
  0
LINE
  5
190
100
AcDbEntity
  8
Cadre Extérieur
  6
CONTINUOUS
 62
    7
370
    0
100
AcDbLine
 10
222.800018
 20
18.500054
 11
277.400024
 21
18.500122
  0
LINE
  5
191
100
AcDbEntity
  8
Cadre Extérieur
  6
CONTINUOUS
 62
    7
370
    0
100
AcDbLine
 10
321.6000059999999
 20
58.87512
 11
410
 21
58.87504
  0
LINE
  5
192
100
AcDbEntity
  8
Cadre Extérieur
  6
CONTINUOUS
 62
    7
370
    0
100
AcDbLine
 10
222.800018
 20
14.250083
 11
410
 21
14.25009
  0
LINE
  5
193
100
AcDbEntity
  8
Cadre Extérieur
  6
CONTINUOUS
 62
    7
370
    0
100
AcDbLine
 10
222.800018
 20
48.250086
 11
410.000061
 21
48.250101
  0
LINE
  5
194
100
AcDbEntity
  8
Cadre Extérieur
  6
CONTINUOUS
 62
    7
370
    0
100
AcDbLine
 10
222.800018
 20
27.000107
 11
410.000061
 21
26.999993
  0
LINE
  5
195
100
AcDbEntity
  8
Cadre Extérieur
  6
CONTINUOUS
 62
    7
370
    0
100
AcDbLine
 10
222.800018
 20
65.250086
 11
410
 21
65.25016599999999
  0
LINE
  5
196
100
AcDbEntity
  8
Cadre Extérieur
  6
CONTINUOUS
 62
    7
370
    0
100
AcDbLine
 10
410.000061
 20
65.250181
 11
410
 21
10
  0
LINE
  5
197
100
AcDbEntity
  8
Cadre Extérieur
  6
CONTINUOUS
 62
    7
370
    0
100
AcDbLine
 10
410
 20
10
 11
222.800018
 21
10.000101
  0
LINE
  5
198
100
AcDbEntity
  8
Cadre Extérieur
  6
CONTINUOUS
 62
    7
370
    0
100
AcDbLine
 10
222.800018
 20
65.250086
 11
222.800018
 21
10.000101
  0
LINE
  5
199
100
AcDbEntity
  8
Symbol ISO
  6
DASHDOT
 62
    7
370
    0
100
AcDbLine
 10
280.2711420000001
 20
57.242876
 11
300.2711420000001
 21
57.242876
  0
CIRCLE
  5
19A
100
AcDbEntity
  8
Symbol ISO
  6
CONTINUOUS
 62
    7
370
    0
100
AcDbCircle
 10
295.4711420000001
 20
57.242876
 40
2.8
  0
CIRCLE
  5
19B
100
AcDbEntity
  8
Symbol ISO
  6
CONTINUOUS
 62
    7
370
    0
100
AcDbCircle
 10
295.4711420000001
 20
57.242876
 40
1.6
  0
LINE
  5
19C
100
AcDbEntity
  8
Symbol ISO
  6
CONTINUOUS
 62
    7
370
    0
100
AcDbLine
 10
282.6711419999999
 20
58.842876
 11
282.6711419999999
 21
55.642876
  0
LINE
  5
19D
100
AcDbEntity
  8
Symbol ISO
  6
CONTINUOUS
 62
    7
370
    0
100
AcDbLine
 10
282.6711419999999
 20
55.642876
 11
289.071142
 21
54.442876
  0
LINE
  5
19E
100
AcDbEntity
  8
Symbol ISO
  6
CONTINUOUS
 62
    7
370
    0
100
AcDbLine
 10
289.071142
 20
60.042876
 11
289.071142
 21
54.442876
  0
LINE
  5
19F
100
AcDbEntity
  8
Symbol ISO
  6
CONTINUOUS
 62
    7
370
    0
100
AcDbLine
 10
282.6711419999999
 20
58.842876
 11
289.071142
 21
60.042876
  0
LINE
  5
1A0
100
AcDbEntity
  8
Symbol ISO
  6
DASHDOT
 62
    7
370
    0
100
AcDbLine
 10
295.4711420000001
 20
52.442876
 11
295.4711420000001
 21
62.042876
  0
MTEXT
  5
1A1
100
AcDbEntity
  8
text
  6
ByLayer
 62
  256
370
   -1
100
AcDbMText
 10
322.726257
 20
60.81260492786925
 30
0
 40
2.5
 41
18.88984131895054
 71
    7
 72
    5
  1
scale  1 : 1
  7
normal#0.500000#1.500000
210
0
220
0
230
1
 50
0
 73
    1
 44
0.96
  0
MTEXT
  5
1A2
100
AcDbEntity
  8
text
  6
ByLayer
 62
  256
370
   -1
100
AcDbMText
 10
374.726242
 20
60.53487722222222
 30
0
 40
2.5
 41
9.722224238102887
 71
    7
 72
    5
  1
(mass)
  7
normal#0.500000#1.500000
210
0
220
0
230
1
 50
0
 73
    1
 44
0.96
  0
MTEXT
  5
1A3
100
AcDbEntity
  8
text
  6
ByLayer
 62
  256
370
   -1
100
AcDbMText
 10
322.7620850000001
 20
54.51309666666666
 30
0
 40
2.5
 41
38.68055628571858
 71
    7
 72
    5
  1
(material, specification)
  7
normal#0.500000#1.500000
210
0
220
0
230
1
 50
0
 73
    1
 44
0.96
  0
MTEXT
  5
1A4
100
AcDbEntity
  8
text
  6
ByLayer
 62
  256
370
   -1
100
AcDbMText
 10
290.6053770000001
 20
44.87508999999989
 30
0
 40
2.5
 41
6.6666666666669
 71
    7
 72
    5
  1
date
  7
normal#0.500000#1.200000
210
0
220
0
230
1
 50
0
 73
    1
 44
0.96
  0
MTEXT
  5
1A5
100
AcDbEntity
  8
text
  6
ByLayer
 62
  256
370
   -1
100
AcDbMText
 10
308.1733400000001
 20
44.87508199999989
 30
0
 40
2.5
 41
7.500000000000348
 71
    7
 72
    5
  1
name
  7
normal#0.500000#1.200000
210
0
220
0
230
1
 50
0
 73
    1
 44
0.96
  0
MTEXT
  5
1A6
100
AcDbEntity
  8
text
  6
ByLayer
 62
  256
370
   -1
100
AcDbMText
 10
277.713043
 20
39.79171466666655
 30
0
 40
2.5
 41
8.611112396829338
 71
    7
 72
    5
  1
desig.
  7
normal#0.500000#1.200000
210
0
220
0
230
1
 50
0
 73
    1
 44
0.96
  0
MTEXT
  5
1A7
100
AcDbEntity
  8
text
  6
ByLayer
 62
  256
370
   -1
100
AcDbMText
 10
277.898956
 20
36.37514499999989
 30
0
 40
2.5
 41
11.38888888888912
 71
    7
 72
    5
  1
check'd
  7
normal#0.500000#1.200000
210
0
220
0
230
1
 50
0
 73
    1
 44
0.96
  0
MTEXT
  5
1A8
100
AcDbEntity
  8
text
  6
ByLayer
 62
  256
370
   -1
100
AcDbMText
 10
277.898956
 20
32.12510899999989
 30
0
 40
2.5
 41
7.500000000000234
 71
    7
 72
    5
  1
auth.
  7
normal#0.500000#1.200000
210
0
220
0
230
1
 50
0
 73
    1
 44
0.96
  0
MTEXT
  5
1A9
100
AcDbEntity
  8
text
  6
ByLayer
 62
  256
370
   -1
100
AcDbMText
 10
223.114746
 20
10.87509599999988
 30
0
 40
2.5
 41
3.888888888888967
 71
    7
 72
    5
  1
loc
  7
normal#0.500000#1.200000
210
0
220
0
230
1
 50
0
 73
    1
 44
0.96
  0
MTEXT
  5
1AA
100
AcDbEntity
  8
text
  6
ByLayer
 62
  256
370
   -1
100
AcDbMText
 10
236.185455
 20
10.04176166666655
 30
0
 40
2.5
 41
10.55555555555614
 71
    7
 72
    5
  1
change
  7
normal#0.500000#1.200000
210
0
220
0
230
1
 50
0
 73
    1
 44
0.96
  0
MTEXT
  5
1AB
100
AcDbEntity
  8
text
  6
ByLayer
 62
  256
370
   -1
100
AcDbMText
 10
258.411652
 20
10.87513199999988
 30
0
 40
2.5
 41
6.6666666666669
 71
    7
 72
    5
  1
date
  7
normal#0.500000#1.200000
210
0
220
0
230
1
 50
0
 73
    1
 44
0.96
  0
MTEXT
  5
1AC
100
AcDbEntity
  8
text
  6
ByLayer
 62
  256
370
   -1
100
AcDbMText
 10
269.6750489999999
 20
10.87506499999988
 30
0
 40
2.5
 41
7.500000000000348
 71
    7
 72
    5
  1
name
  7
normal#0.200000#1.200000
210
0
220
0
230
1
 50
0
 73
    1
 44
0.96
  0
MTEXT
  5
1AD
100
AcDbEntity
  8
text
  6
ByLayer
 62
  256
370
   -1
100
AcDbMText
 10
278.6523440000001
 20
10.04172966666655
 30
0
 40
2.5
 41
11.38888888888901
 71
    7
 72
    5
  1
project
  7
normal#0.500000#1.200000
210
0
220
0
230
1
 50
0
 73
    1
 44
0.96
  0
MTEXT
  5
1AE
100
AcDbEntity
  8
text
  6
ByLayer
 62
  256
370
   -1
100
AcDbMText
 10
323.2767329999999
 20
10.04178766666667
 30
0
 40
2.5
 41
13.33333461905145
 71
    7
 72
    5
  1
replaces
  7
normal#0.500000#1.500000
210
0
220
0
230
1
 50
0
 73
    1
 44
0.96
  0
MTEXT
  5
1AF
100
AcDbEntity
  8
text
  6
ByLayer
 62
  256
370
   -1
100
AcDbMText
 10
367.4767300000001
 20
10.04186066666667
 30
0
 40
2.5
 41
19.09722222222246
 71
    7
 72
    5
  1
replaced by
  7
normal#0.500000#1.500000
210
0
220
0
230
1
 50
0
 73
    1
 44
0.96
  0
MTEXT
  5
1B0
100
AcDbEntity
  8
text
  6
ByLayer
 62
  256
370
   -1
100
AcDbMText
 10
399.839905
 20
15.2375699422954
 30
0
 40
2
 41
6.889650832938209
 71
    7
 72
    5
  1
sheet
  7
normal#0.500000#0.900000
210
0
220
0
230
1
 50
0
 73
    1
 44
0.96
  0
MTEXT
  5
1B1
100
AcDbEntity
  8
text
  6
ByLayer
 62
  256
370
   -1
100
AcDbMText
 10
322.496576
 20
27.91470066666667
 30
0
 40
2.5
 41
16.59722222222269
 71
    7
 72
    5
  1
part name
  7
normal#0.500000#0.900000
210
0
220
0
230
1
 50
0
 73
    1
 44
0.96
  0
MTEXT
  5
1B2
100
AcDbEntity
  8
text
  6
ByLayer
 62
  256
370
   -1
100
AcDbMText
 10
322.2766879999999
 20
14.50148366666667
 30
0
 40
2.5
 41
20.2083333333338
 71
    7
 72
    5
  1
part number
  7
normal#0.500000#0.900000
210
0
220
0
230
1
 50
0
 73
    1
 44
0.96
  0
CIRCLE
  5
1B3
100
AcDbEntity
  8
Aide PériPhérique
  6
ByLayer
 62
  256
370
   -1
100
AcDbCircle
 10
414.9999999999998
 20
222.7499999999999
 40
3
  0
LINE
  5
1B4
100
AcDbEntity
  8
Aide PériPhérique
  6
ByLayer
 62
  256
370
   -1
100
AcDbLine
 10
410.0000000000002
 20
148.5000000000001
 11
414.3301270189227
 21
146.0000000000002
  0
LINE
  5
1B5
100
AcDbEntity
  8
Aide PériPhérique
  6
ByLayer
 62
  256
370
   -1
100
AcDbLine
 10
410.0000000000002
 20
148.5000000000001
 11
414.3301270189222
 21
150.9999999999998
  0
LINE
  5
1B6
100
AcDbEntity
  8
Aide PériPhérique
  6
ByLayer
 62
  256
370
   -1
100
AcDbLine
 10
414.3301270189227
 20
146.0000000000002
 11
414.3301270189222
 21
150.9999999999998
  0
CIRCLE
  5
1B7
100
AcDbEntity
  8
Aide PériPhérique
  6
ByLayer
 62
  256
370
   -1
100
AcDbCircle
 10
415
 20
74.25
 40
3
  0
MTEXT
  5
1B8
100
AcDbEntity
  8
Aide PériPhérique
  6
ByLayer
 62
  256
370
   -1
100
AcDbMText
 10
415
 20
74.25
 30
0
 40
4
 41
2.666666666666667
 71
    5
 72
    5
  1
A
  7
iso
210
0
220
0
230
1
 50
6.283185307179586
 73
    2
 44
0.96
  0
MTEXT
  5
1B9
100
AcDbEntity
  8
Aide PériPhérique
  6
ByLayer
 62
  256
370
   -1
100
AcDbMText
 10
414.9999999999998
 20
222.7499999999999
 30
0
 40
4
 41
2.222222222222222
 71
    5
 72
    5
  1
B
  7
iso
210
0
220
0
230
1
 50
6.283185307179586
 73
    2
 44
0.96
  0
LINE
  5
1BA
100
AcDbEntity
  8
Cadre Extérieur
  6
CONTINUOUS
 62
    7
370
    0
100
AcDbLine
 10
20.00000000000002
 20
287
 11
410
 21
287
  0
LINE
  5
1BB
100
AcDbEntity
  8
Cadre Extérieur
  6
CONTINUOUS
 62
    7
370
    0
100
AcDbLine
 10
410
 20
287
 11
410
 21
10
  0
LINE
  5
1BC
100
AcDbEntity
  8
Aide PériPhérique
  6
ByLayer
 62
  256
370
   -1
100
AcDbLine
 10
420
 20
297
 11
2.57e-014
 21
297
  0
LINE
  5
1BD
100
AcDbEntity
  8
Aide PériPhérique
  6
ByLayer
 62
  256
370
   -1
100
AcDbLine
 10
125
 20
0
 11
125
 21
10
  0
LINE
  5
1BE
100
AcDbEntity
  8
Aide PériPhérique
  6
ByLayer
 62
  256
370
   -1
100
AcDbLine
 10
230
 20
2.84e-014
 11
230
 21
9.999999999999972
  0
LINE
  5
1BF
100
AcDbEntity
  8
Aide PériPhérique
  6
ByLayer
 62
  256
370
   -1
100
AcDbLine
 10
124.9999760000001
 20
9.999976000000061
 11
122.499976
 21
5.669848981077848
  0
LINE
  5
1C0
100
AcDbEntity
  8
Aide PériPhérique
  6
ByLayer
 62
  256
370
   -1
100
AcDbLine
 10
124.9999760000001
 20
9.999976000000061
 11
127.4999760000001
 21
5.669848981077848
  0
LINE
  5
1C1
100
AcDbEntity
  8
Aide PériPhérique
  6
ByLayer
 62
  256
370
   -1
100
AcDbLine
 10
122.499976
 20
5.669848981077848
 11
127.4999760000001
 21
5.669848981077848
  0
CIRCLE
  5
1C2
100
AcDbEntity
  8
Aide PériPhérique
  6
ByLayer
 62
  256
370
   -1
100
AcDbCircle
 10
177.4999999999999
 20
5
 40
3
  0
LINE
  5
1C3
100
AcDbEntity
  8
Aide PériPhérique
  6
ByLayer
 62
  256
370
   -1
100
AcDbLine
 10
229.9999760000001
 20
9.999976000000089
 11
227.4999760000001
 21
5.669848981077877
  0
LINE
  5
1C4
100
AcDbEntity
  8
Aide PériPhérique
  6
ByLayer
 62
  256
370
   -1
100
AcDbLine
 10
229.9999760000001
 20
9.999976000000089
 11
232.4999760000001
 21
5.669848981077877
  0
LINE
  5
1C5
100
AcDbEntity
  8
Aide PériPhérique
  6
ByLayer
 62
  256
370
   -1
100
AcDbLine
 10
227.4999760000001
 20
5.669848981077877
 11
232.4999760000001
 21
5.669848981077877
  0
CIRCLE
  5
1C6
100
AcDbEntity
  8
Aide PériPhérique
  6
ByLayer
 62
  256
370
   -1
100
AcDbCircle
 10
72.49999999999999
 20
5
 40
3
  0
MTEXT
  5
1C7
100
AcDbEntity
  8
Aide PériPhérique
  6
ByLayer
 62
  256
370
   -1
100
AcDbMText
 10
72.49999999999999
 20
5
 30
0
 40
4
 41
0.8888888888888888
 71
    5
 72
    5
  1
1
  7
iso
210
0
220
0
230
1
 50
0
 73
    2
 44
0.96
  0
MTEXT
  5
1C8
100
AcDbEntity
  8
Aide PériPhérique
  6
ByLayer
 62
  256
370
   -1
100
AcDbMText
 10
177.4999999999999
 20
5
 30
0
 40
4
 41
1.777777777777778
 71
    5
 72
    5
  1
2
  7
iso
210
0
220
0
230
1
 50
0
 73
    2
 44
0.96
  0
CIRCLE
  5
1C9
100
AcDbEntity
  8
Aide PériPhérique
  6
ByLayer
 62
  256
370
   -1
100
AcDbCircle
 10
278
 20
5.000000000000057
 40
3
  0
MTEXT
  5
1CA
100
AcDbEntity
  8
Aide PériPhérique
  6
ByLayer
 62
  256
370
   -1
100
AcDbMText
 10
278
 20
5.000000000000057
 30
0
 40
4
 41
1.777777777778026
 71
    5
 72
    5
  1
3
  7
iso
210
0
220
0
230
1
 50
0
 73
    2
 44
0.96
  0
LINE
  5
1CB
100
AcDbEntity
  8
Aide PériPhérique
  6
ByLayer
 62
  256
370
   -1
100
AcDbLine
 10
315
 20
9.999976000000061
 11
312.5
 21
5.669848981077877
  0
LINE
  5
1CC
100
AcDbEntity
  8
Aide PériPhérique
  6
ByLayer
 62
  256
370
   -1
100
AcDbLine
 10
315
 20
9.999976000000061
 11
317.5
 21
5.669848981077905
  0
LINE
  5
1CD
100
AcDbEntity
  8
Aide PériPhérique
  6
ByLayer
 62
  256
370
   -1
100
AcDbLine
 10
312.5
 20
5.669848981077877
 11
317.5
 21
5.669848981077905
  0
CIRCLE
  5
1CE
100
AcDbEntity
  8
Aide PériPhérique
  6
ByLayer
 62
  256
370
   -1
100
AcDbCircle
 10
363.0000239999999
 20
4.999999999999943
 40
3
  0
MTEXT
  5
1CF
100
AcDbEntity
  8
Aide PériPhérique
  6
ByLayer
 62
  256
370
   -1
100
AcDbMText
 10
363.0000239999999
 20
4.999999999999943
 30
0
 40
4
 41
2.222222222222222
 71
    5
 72
    5
  1
4
  7
iso
210
0
220
0
230
1
 50
0
 73
    2
 44
0.96
  0
LINE
  5
1D0
100
AcDbEntity
  8
Aide PériPhérique
  6
ByLayer
 62
  256
370
   -1
100
AcDbLine
 10
420
 20
0
 11
420
 21
297
  0
LINE
  5
1D1
100
AcDbEntity
  8
Aide PériPhérique
  6
ByLayer
 62
  256
370
   -1
100
AcDbLine
 10
3.55e-014
 20
0
 11
420
 21
0
  0
LINE
  5
1D2
100
AcDbEntity
  8
Aide PériPhérique
  6
ByLayer
 62
  256
370
   -1
100
AcDbLine
 10
124.9999999999999
 20
297.0000000000001
 11
125
 21
287
  0
LINE
  5
1D3
100
AcDbEntity
  8
Aide PériPhérique
  6
ByLayer
 62
  256
370
   -1
100
AcDbLine
 10
229.9999999999999
 20
297.0000000000001
 11
230.0000000000001
 21
287
  0
LINE
  5
1D4
100
AcDbEntity
  8
Aide PériPhérique
  6
ByLayer
 62
  256
370
   -1
100
AcDbLine
 10
124.999976
 20
287.0000239999999
 11
122.4999759999999
 21
291.3301510189223
  0
LINE
  5
1D5
100
AcDbEntity
  8
Aide PériPhérique
  6
ByLayer
 62
  256
370
   -1
100
AcDbLine
 10
124.999976
 20
287.0000239999999
 11
127.499976
 21
291.3301510189222
  0
LINE
  5
1D6
100
AcDbEntity
  8
Aide PériPhérique
  6
ByLayer
 62
  256
370
   -1
100
AcDbLine
 10
122.4999759999999
 20
291.3301510189223
 11
127.499976
 21
291.3301510189222
  0
CIRCLE
  5
1D7
100
AcDbEntity
  8
Aide PériPhérique
  6
ByLayer
 62
  256
370
   -1
100
AcDbCircle
 10
177.4999999999999
 20
292.0000000000001
 40
3
  0
LINE
  5
1D8
100
AcDbEntity
  8
Aide PériPhérique
  6
ByLayer
 62
  256
370
   -1
100
AcDbLine
 10
229.9999760000001
 20
287.0000239999999
 11
227.4999760000001
 21
291.3301510189222
  0
LINE
  5
1D9
100
AcDbEntity
  8
Aide PériPhérique
  6
ByLayer
 62
  256
370
   -1
100
AcDbLine
 10
229.9999760000001
 20
287.0000239999999
 11
232.4999759999999
 21
291.3301510189223
  0
LINE
  5
1DA
100
AcDbEntity
  8
Aide PériPhérique
  6
ByLayer
 62
  256
370
   -1
100
AcDbLine
 10
227.4999760000001
 20
291.3301510189222
 11
232.4999759999999
 21
291.3301510189223
  0
CIRCLE
  5
1DB
100
AcDbEntity
  8
Aide PériPhérique
  6
ByLayer
 62
  256
370
   -1
100
AcDbCircle
 10
72.49999999999997
 20
292
 40
3
  0
MTEXT
  5
1DC
100
AcDbEntity
  8
Aide PériPhérique
  6
ByLayer
 62
  256
370
   -1
100
AcDbMText
 10
72.49999999999997
 20
292
 30
0
 40
4
 41
0.8888888888888888
 71
    5
 72
    5
  1
1
  7
iso
210
0
220
0
230
1
 50
0
 73
    2
 44
0.96
  0
MTEXT
  5
1DD
100
AcDbEntity
  8
Aide PériPhérique
  6
ByLayer
 62
  256
370
   -1
100
AcDbMText
 10
177.4999999999999
 20
292.0000000000001
 30
0
 40
4
 41
1.777777777777778
 71
    5
 72
    5
  1
2
  7
iso
210
0
220
0
230
1
 50
0
 73
    2
 44
0.96
  0
CIRCLE
  5
1DE
100
AcDbEntity
  8
Aide PériPhérique
  6
ByLayer
 62
  256
370
   -1
100
AcDbCircle
 10
278
 20
292
 40
3
  0
MTEXT
  5
1DF
100
AcDbEntity
  8
Aide PériPhérique
  6
ByLayer
 62
  256
370
   -1
100
AcDbMText
 10
278
 20
292
 30
0
 40
4
 41
1.777777777778026
 71
    5
 72
    5
  1
3
  7
iso
210
0
220
0
230
1
 50
0
 73
    2
 44
0.96
  0
LINE
  5
1E0
100
AcDbEntity
  8
Aide PériPhérique
  6
ByLayer
 62
  256
370
   -1
100
AcDbLine
 10
314.9999999999999
 20
287.0000240000001
 11
312.4999999999999
 21
291.3301510189223
  0
LINE
  5
1E1
100
AcDbEntity
  8
Aide PériPhérique
  6
ByLayer
 62
  256
370
   -1
100
AcDbLine
 10
314.9999999999999
 20
287.0000240000001
 11
317.4999999999999
 21
291.3301510189223
  0
LINE
  5
1E2
100
AcDbEntity
  8
Aide PériPhérique
  6
ByLayer
 62
  256
370
   -1
100
AcDbLine
 10
312.4999999999999
 20
291.3301510189223
 11
317.4999999999999
 21
291.3301510189223
  0
CIRCLE
  5
1E3
100
AcDbEntity
  8
Aide PériPhérique
  6
ByLayer
 62
  256
370
   -1
100
AcDbCircle
 10
363.0000239999999
 20
292.0000000000003
 40
3
  0
MTEXT
  5
1E4
100
AcDbEntity
  8
Aide PériPhérique
  6
ByLayer
 62
  256
370
   -1
100
AcDbMText
 10
363.0000239999999
 20
292.0000000000003
 30
0
 40
4
 41
2.222222222222222
 71
    5
 72
    5
  1
4
  7
iso
210
0
220
0
230
1
 50
0
 73
    2
 44
0.96
  0
ENDBLK
  5
67
330
65
100
AcDbEntity
  8
0
100
AcDbBlockEnd
  0
BLOCK
  5
69
330
68
100
AcDbEntity
  8
0
100
AcDbBlockBegin
  2
a3-2
 70
    0
 10
0
 20
0
  3
a3-2
  1

  0
CIRCLE
  5
1E5
100
AcDbEntity
  8
Aide PériPhérique
  6
ByLayer
 62
  256
370
   -1
100
AcDbCircle
 10
15.00000000000002
 20
222.7500000000001
 40
3
  0
LINE
  5
1E6
100
AcDbEntity
  8
Aide PériPhérique
  6
ByLayer
 62
  256
370
   -1
100
AcDbLine
 10
19.99999999999989
 20
148.5
 11
15.66987298107769
 21
146
  0
LINE
  5
1E7
100
AcDbEntity
  8
Aide PériPhérique
  6
ByLayer
 62
  256
370
   -1
100
AcDbLine
 10
19.99999999999989
 20
148.5
 11
15.66987298107771
 21
151
  0
LINE
  5
1E8
100
AcDbEntity
  8
Aide PériPhérique
  6
ByLayer
 62
  256
370
   -1
100
AcDbLine
 10
15.66987298107769
 20
146
 11
15.66987298107771
 21
151
  0
CIRCLE
  5
1E9
100
AcDbEntity
  8
Aide PériPhérique
  6
ByLayer
 62
  256
370
   -1
100
AcDbCircle
 10
15
 20
74.25000000000011
 40
3
  0
MTEXT
  5
1EA
100
AcDbEntity
  8
Aide PériPhérique
  6
ByLayer
 62
  256
370
   -1
100
AcDbMText
 10
15
 20
74.25000000000011
 30
0
 40
4
 41
2.666666666666667
 71
    5
 72
    5
  1
A
  7
iso
210
0
220
0
230
1
 50
6.283185307179586
 73
    2
 44
0.96
  0
MTEXT
  5
1EB
100
AcDbEntity
  8
Aide PériPhérique
  6
ByLayer
 62
  256
370
   -1
100
AcDbMText
 10
15.00000000000002
 20
222.7500000000001
 30
0
 40
4
 41
2.222222222222222
 71
    5
 72
    5
  1
B
  7
iso
210
0
220
0
230
1
 50
6.283185307179586
 73
    2
 44
0.96
  0
LINE
  5
1EC
100
AcDbEntity
  8
Cadre Extérieur
  6
ByLayer
 62
  256
370
   -1
100
AcDbLine
 10
20
 20
287
 11
20
 21
10
  0
LINE
  5
1ED
100
AcDbEntity
  8
Aide PériPhérique
  6
ByLayer
 62
  256
370
   -1
100
AcDbLine
 10
1.82e-014
 20
297
 11
0
 21
0
  0
LINE
  5
1EE
100
AcDbEntity
  8
Cadre Extérieur
  6
ByLayer
 62
  256
370
   -1
100
AcDbLine
 10
20
 20
10
 11
410
 21
9.999999999999945
  0
LINE
  5
1EF
100
AcDbEntity
  8
Cadre Extérieur
  6
ByLayer
 62
  256
370
   -1
100
AcDbLine
 10
373.600021
 20
65.25009399999996
 11
373.600021
 21
58.87505199999991
  0
LINE
  5
1F0
100
AcDbEntity
  8
Cadre Extérieur
  6
ByLayer
 62
  256
370
   -1
100
AcDbLine
 10
397
 20
26.999987
 11
397
 21
14.25004199999935
  0
LINE
  5
1F1
100
AcDbEntity
  8
Cadre Extérieur
  6
ByLayer
 62
  256
370
   -1
100
AcDbLine
 10
365.8000340000001
 20
14.25010700000141
 11
365.8000340000001
 21
10.00009799999988
  0
LINE
  5
1F2
100
AcDbEntity
  8
Cadre Extérieur
  6
ByLayer
 62
  256
370
   -1
100
AcDbLine
 10
303.400024
 20
65.25009699999998
 11
303.400024
 21
27.00005900000017
  0
LINE
  5
1F3
100
AcDbEntity
  8
Cadre Extérieur
  6
ByLayer
 62
  256
370
   -1
100
AcDbLine
 10
287.8000179999999
 20
48.25009000000014
 11
287.8000179999999
 21
27.00013600000004
  0
LINE
  5
1F4
100
AcDbEntity
  8
Cadre Extérieur
  6
ByLayer
 62
  256
370
   -1
100
AcDbLine
 10
277.400024
 20
65.25009000000004
 11
277.400024
 21
10.00009399999885
  0
LINE
  5
1F5
100
AcDbEntity
  8
Cadre Extérieur
  6
ByLayer
 62
  256
370
   -1
100
AcDbLine
 10
321.6000059999999
 20
65.25013900000003
 11
321.6000059999999
 21
10.00009700000059
  0
LINE
  5
1F6
100
AcDbEntity
  8
Cadre Extérieur
  6
ByLayer
 62
  256
370
   -1
100
AcDbLine
 10
269.6000059999999
 20
48.25008199999981
 11
269.6000369999999
 21
10.0000989999999
  0
LINE
  5
1F7
100
AcDbEntity
  8
Cadre Extérieur
  6
ByLayer
 62
  256
370
   -1
100
AcDbLine
 10
256.6000059999999
 20
48.2501010000002
 11
256.6000059999999
 21
10.0000910000006
  0
LINE
  5
1F8
100
AcDbEntity
  8
Cadre Extérieur
  6
ByLayer
 62
  256
370
   -1
100
AcDbLine
 10
230.600006
 20
48.25011300000001
 11
230.600006
 21
10.00009299999965
  0
LINE
  5
1F9
100
AcDbEntity
  8
Cadre Extérieur
  6
ByLayer
 62
  256
370
   -1
100
AcDbLine
 10
222.800018
 20
31.25007499999977
 11
321.6000059999999
 21
31.25009200000036
  0
LINE
  5
1FA
100
AcDbEntity
  8
Cadre Extérieur
  6
ByLayer
 62
  256
370
   -1
100
AcDbLine
 10
222.800018
 20
35.50007999999994
 11
321.6000059999999
 21
35.50011500000002
  0
LINE
  5
1FB
100
AcDbEntity
  8
Cadre Extérieur
  6
ByLayer
 62
  256
370
   -1
100
AcDbLine
 10
222.800018
 20
39.75011599999998
 11
321.6000369999999
 21
39.75006699999997
  0
LINE
  5
1FC
100
AcDbEntity
  8
Cadre Extérieur
  6
ByLayer
 62
  256
370
   -1
100
AcDbLine
 10
222.800018
 20
44.00009699999989
 11
321.6000369999999
 21
44.00008599999977
  0
LINE
  5
1FD
100
AcDbEntity
  8
Cadre Extérieur
  6
ByLayer
 62
  256
370
   -1
100
AcDbLine
 10
222.800018
 20
22.75005499999975
 11
277.400024
 21
22.75006100000023
  0
LINE
  5
1FE
100
AcDbEntity
  8
Cadre Extérieur
  6
ByLayer
 62
  256
370
   -1
100
AcDbLine
 10
222.800018
 20
18.50005400000003
 11
277.400024
 21
18.50012200000026
  0
LINE
  5
1FF
100
AcDbEntity
  8
Cadre Extérieur
  6
ByLayer
 62
  256
370
   -1
100
AcDbLine
 10
321.6000059999999
 20
58.87511999999988
 11
410
 21
58.87504000000014
  0
LINE
  5
200
100
AcDbEntity
  8
Cadre Extérieur
  6
ByLayer
 62
  256
370
   -1
100
AcDbLine
 10
222.800018
 20
14.25008299999985
 11
410
 21
14.25008999999916
  0
LINE
  5
201
100
AcDbEntity
  8
Cadre Extérieur
  6
ByLayer
 62
  256
370
   -1
100
AcDbLine
 10
222.800018
 20
48.25008599999984
 11
410.000061
 21
48.25010100000019
  0
LINE
  5
202
100
AcDbEntity
  8
Cadre Extérieur
  6
ByLayer
 62
  256
370
   -1
100
AcDbLine
 10
222.800018
 20
27.00010700000013
 11
410.000061
 21
26.99999300000035
  0
LINE
  5
203
100
AcDbEntity
  8
Cadre Extérieur
  6
ByLayer
 62
  256
370
   -1
100
AcDbLine
 10
222.800018
 20
65.25008599999994
 11
410
 21
65.25016599999992
  0
LINE
  5
204
100
AcDbEntity
  8
Cadre Extérieur
  6
ByLayer
 62
  256
370
   -1
100
AcDbLine
 10
410.000061
 20
65.25018100000015
 11
410
 21
9.999999999999945
  0
LINE
  5
205
100
AcDbEntity
  8
Cadre Extérieur
  6
ByLayer
 62
  256
370
   -1
100
AcDbLine
 10
410
 20
9.999999999999945
 11
222.800018
 21
10.00010099999966
  0
LINE
  5
206
100
AcDbEntity
  8
Cadre Extérieur
  6
ByLayer
 62
  256
370
   -1
100
AcDbLine
 10
222.800018
 20
65.25008599999994
 11
222.800018
 21
10.00010099999966
  0
LINE
  5
207
100
AcDbEntity
  8
Symbol ISO
  6
ByLayer
 62
  256
370
   -1
100
AcDbLine
 10
280.2711420000001
 20
57.24287599999997
 11
300.2711420000001
 21
57.24287599999987
  0
CIRCLE
  5
208
100
AcDbEntity
  8
Symbol ISO
  6
ByLayer
 62
  256
370
   -1
100
AcDbCircle
 10
295.4711420000001
 20
57.24287599999973
 40
2.8
  0
CIRCLE
  5
209
100
AcDbEntity
  8
Symbol ISO
  6
ByLayer
 62
  256
370
   -1
100
AcDbCircle
 10
295.4711420000001
 20
57.24287599999973
 40
1.6
  0
LINE
  5
20A
100
AcDbEntity
  8
Symbol ISO
  6
ByLayer
 62
  256
370
   -1
100
AcDbLine
 10
282.6711419999999
 20
58.84287599999995
 11
282.6711419999999
 21
55.64287600000003
  0
LINE
  5
20B
100
AcDbEntity
  8
Symbol ISO
  6
ByLayer
 62
  256
370
   -1
100
AcDbLine
 10
282.6711419999999
 20
55.64287600000003
 11
289.071142
 21
54.44287599999993
  0
LINE
  5
20C
100
AcDbEntity
  8
Symbol ISO
  6
ByLayer
 62
  256
370
   -1
100
AcDbLine
 10
289.071142
 20
60.04287600000005
 11
289.071142
 21
54.44287599999993
  0
LINE
  5
20D
100
AcDbEntity
  8
Symbol ISO
  6
ByLayer
 62
  256
370
   -1
100
AcDbLine
 10
282.6711419999999
 20
58.84287599999995
 11
289.071142
 21
60.04287600000005
  0
LINE
  5
20E
100
AcDbEntity
  8
Symbol ISO
  6
ByLayer
 62
  256
370
   -1
100
AcDbLine
 10
295.4711420000001
 20
52.44287599999988
 11
295.4711420000001
 21
62.04287600000004
  0
MTEXT
  5
20F
100
AcDbEntity
  8
text
  6
ByLayer
 62
  256
370
   -1
100
AcDbMText
 10
322.726257
 20
60.81260492786927
 30
0
 40
2.5
 41
18.88984131895054
 71
    7
 72
    5
  1
scale  1 : 1
  7
normal#0.500000#1.500000
210
0
220
0
230
1
 50
0
 73
    1
 44
0.96
  0
MTEXT
  5
210
100
AcDbEntity
  8
text
  6
ByLayer
 62
  256
370
   -1
100
AcDbMText
 10
374.726242
 20
60.53487722222226
 30
0
 40
2.5
 41
9.722224238102887
 71
    7
 72
    5
  1
(mass)
  7
normal#0.500000#1.500000
210
0
220
0
230
1
 50
0
 73
    1
 44
0.96
  0
MTEXT
  5
211
100
AcDbEntity
  8
text
  6
ByLayer
 62
  256
370
   -1
100
AcDbMText
 10
322.7620850000001
 20
54.51309666666654
 30
0
 40
2.5
 41
38.68055628571858
 71
    7
 72
    5
  1
(material, specification)
  7
normal#0.500000#1.500000
210
0
220
0
230
1
 50
0
 73
    1
 44
0.96
  0
MTEXT
  5
212
100
AcDbEntity
  8
text
  6
ByLayer
 62
  256
370
   -1
100
AcDbMText
 10
290.6053770000001
 20
44.87508999999979
 30
0
 40
2.5
 41
6.6666666666669
 71
    7
 72
    5
  1
date
  7
normal#0.500000#1.200000
210
0
220
0
230
1
 50
0
 73
    1
 44
0.96
  0
MTEXT
  5
213
100
AcDbEntity
  8
text
  6
ByLayer
 62
  256
370
   -1
100
AcDbMText
 10
308.1733400000001
 20
44.87508199999996
 30
0
 40
2.5
 41
7.500000000000348
 71
    7
 72
    5
  1
name
  7
normal#0.500000#1.200000
210
0
220
0
230
1
 50
0
 73
    1
 44
0.96
  0
MTEXT
  5
214
100
AcDbEntity
  8
text
  6
ByLayer
 62
  256
370
   -1
100
AcDbMText
 10
277.713043
 20
39.79171466666669
 30
0
 40
2.5
 41
8.611112396829338
 71
    7
 72
    5
  1
desig.
  7
normal#0.500000#1.200000
210
0
220
0
230
1
 50
0
 73
    1
 44
0.96
  0
MTEXT
  5
215
100
AcDbEntity
  8
text
  6
ByLayer
 62
  256
370
   -1
100
AcDbMText
 10
277.898956
 20
32.12510899999974
 30
0
 40
2.5
 41
7.500000000000234
 71
    7
 72
    5
  1
auth.
  7
normal#0.500000#1.200000
210
0
220
0
230
1
 50
0
 73
    1
 44
0.96
  0
MTEXT
  5
216
100
AcDbEntity
  8
text
  6
ByLayer
 62
  256
370
   -1
100
AcDbMText
 10
223.114746
 20
10.87509599999959
 30
0
 40
2.5
 41
3.888888888888967
 71
    7
 72
    5
  1
loc
  7
normal#0.500000#1.200000
210
0
220
0
230
1
 50
0
 73
    1
 44
0.96
  0
MTEXT
  5
217
100
AcDbEntity
  8
text
  6
ByLayer
 62
  256
370
   -1
100
AcDbMText
 10
236.185455
 20
10.0417616666664
 30
0
 40
2.5
 41
10.55555555555614
 71
    7
 72
    5
  1
change
  7
normal#0.500000#1.200000
210
0
220
0
230
1
 50
0
 73
    1
 44
0.96
  0
MTEXT
  5
218
100
AcDbEntity
  8
text
  6
ByLayer
 62
  256
370
   -1
100
AcDbMText
 10
258.411652
 20
10.87513200000014
 30
0
 40
2.5
 41
6.6666666666669
 71
    7
 72
    5
  1
date
  7
normal#0.500000#1.200000
210
0
220
0
230
1
 50
0
 73
    1
 44
0.96
  0
MTEXT
  5
219
100
AcDbEntity
  8
text
  6
ByLayer
 62
  256
370
   -1
100
AcDbMText
 10
269.6750489999999
 20
10.87506499999954
 30
0
 40
2.5
 41
7.500000000000348
 71
    7
 72
    5
  1
name
  7
normal#0.200000#1.200000
210
0
220
0
230
1
 50
0
 73
    1
 44
0.96
  0
MTEXT
  5
21A
100
AcDbEntity
  8
text
  6
ByLayer
 62
  256
370
   -1
100
AcDbMText
 10
278.6523440000001
 20
10.04172966666624
 30
0
 40
2.5
 41
11.38888888888901
 71
    7
 72
    5
  1
project
  7
normal#0.500000#1.200000
210
0
220
0
230
1
 50
0
 73
    1
 44
0.96
  0
MTEXT
  5
21B
100
AcDbEntity
  8
text
  6
ByLayer
 62
  256
370
   -1
100
AcDbMText
 10
323.2767329999999
 20
10.04178766666714
 30
0
 40
2.5
 41
13.33333461905145
 71
    7
 72
    5
  1
replaces
  7
normal#0.500000#1.500000
210
0
220
0
230
1
 50
0
 73
    1
 44
0.96
  0
MTEXT
  5
21C
100
AcDbEntity
  8
text
  6
ByLayer
 62
  256
370
   -1
100
AcDbMText
 10
367.4767300000001
 20
10.04186066666497
 30
0
 40
2.5
 41
19.09722222222246
 71
    7
 72
    5
  1
replaced by
  7
normal#0.500000#1.500000
210
0
220
0
230
1
 50
0
 73
    1
 44
0.96
  0
MTEXT
  5
21D
100
AcDbEntity
  8
text
  6
ByLayer
 62
  256
370
   -1
100
AcDbMText
 10
399.839905
 20
15.23756994229673
 30
0
 40
2
 41
6.889650832938209
 71
    7
 72
    5
  1
sheet
  7
normal#0.500000#0.900000
210
0
220
0
230
1
 50
0
 73
    1
 44
0.96
  0
MTEXT
  5
21E
100
AcDbEntity
  8
text
  6
ByLayer
 62
  256
370
   -1
100
AcDbMText
 10
322.496576
 20
27.91470066666627
 30
0
 40
2.5
 41
16.59722222222269
 71
    7
 72
    5
  1
part name
  7
normal#0.500000#0.900000
210
0
220
0
230
1
 50
0
 73
    1
 44
0.96
  0
MTEXT
  5
21F
100
AcDbEntity
  8
text
  6
ByLayer
 62
  256
370
   -1
100
AcDbMText
 10
322.2766879999999
 20
14.5014836666667
 30
0
 40
2.5
 41
20.2083333333338
 71
    7
 72
    5
  1
part number
  7
normal#0.500000#0.900000
210
0
220
0
230
1
 50
0
 73
    1
 44
0.96
  0
CIRCLE
  5
220
100
AcDbEntity
  8
Aide PériPhérique
  6
ByLayer
 62
  256
370
   -1
100
AcDbCircle
 10
414.9999999999998
 20
222.7499999999999
 40
3
  0
LINE
  5
221
100
AcDbEntity
  8
Aide PériPhérique
  6
ByLayer
 62
  256
370
   -1
100
AcDbLine
 10
410.0000000000002
 20
148.5
 11
414.3301270189227
 21
146.0000000000001
  0
LINE
  5
222
100
AcDbEntity
  8
Aide PériPhérique
  6
ByLayer
 62
  256
370
   -1
100
AcDbLine
 10
410.0000000000002
 20
148.5
 11
414.3301270189222
 21
150.9999999999998
  0
LINE
  5
223
100
AcDbEntity
  8
Aide PériPhérique
  6
ByLayer
 62
  256
370
   -1
100
AcDbLine
 10
414.3301270189227
 20
146.0000000000001
 11
414.3301270189222
 21
150.9999999999998
  0
CIRCLE
  5
224
100
AcDbEntity
  8
Aide PériPhérique
  6
ByLayer
 62
  256
370
   -1
100
AcDbCircle
 10
415
 20
74.25000000000007
 40
3
  0
MTEXT
  5
225
100
AcDbEntity
  8
Aide PériPhérique
  6
ByLayer
 62
  256
370
   -1
100
AcDbMText
 10
415
 20
74.25000000000007
 30
0
 40
4
 41
2.666666666666667
 71
    5
 72
    5
  1
A
  7
iso
210
0
220
0
230
1
 50
6.283185307179586
 73
    2
 44
0.96
  0
MTEXT
  5
226
100
AcDbEntity
  8
Aide PériPhérique
  6
ByLayer
 62
  256
370
   -1
100
AcDbMText
 10
414.9999999999998
 20
222.7499999999999
 30
0
 40
4
 41
2.222222222222222
 71
    5
 72
    5
  1
B
  7
iso
210
0
220
0
230
1
 50
6.283185307179586
 73
    2
 44
0.96
  0
LINE
  5
227
100
AcDbEntity
  8
Cadre Extérieur
  6
ByLayer
 62
  256
370
   -1
100
AcDbLine
 10
20
 20
287
 11
410
 21
286.9999999999999
  0
LINE
  5
228
100
AcDbEntity
  8
Cadre Extérieur
  6
ByLayer
 62
  256
370
   -1
100
AcDbLine
 10
410
 20
286.9999999999999
 11
410
 21
9.999999999999945
  0
LINE
  5
229
100
AcDbEntity
  8
Aide PériPhérique
  6
ByLayer
 62
  256
370
   -1
100
AcDbLine
 10
420
 20
297
 11
1.82e-014
 21
297
  0
LINE
  5
22A
100
AcDbEntity
  8
Aide PériPhérique
  6
ByLayer
 62
  256
370
   -1
100
AcDbLine
 10
125
 20
0
 11
125
 21
9.999999999999902
  0
LINE
  5
22B
100
AcDbEntity
  8
Aide PériPhérique
  6
ByLayer
 62
  256
370
   -1
100
AcDbLine
 10
230
 20
0
 11
230
 21
10.00000000000048
  0
LINE
  5
22C
100
AcDbEntity
  8
Aide PériPhérique
  6
ByLayer
 62
  256
370
   -1
100
AcDbLine
 10
124.9999760000001
 20
9.999976000000135
 11
122.499976
 21
5.669848981077905
  0
LINE
  5
22D
100
AcDbEntity
  8
Aide PériPhérique
  6
ByLayer
 62
  256
370
   -1
100
AcDbLine
 10
124.9999760000001
 20
9.999976000000135
 11
127.4999760000001
 21
5.669848981077732
  0
LINE
  5
22E
100
AcDbEntity
  8
Aide PériPhérique
  6
ByLayer
 62
  256
370
   -1
100
AcDbLine
 10
122.499976
 20
5.669848981077905
 11
127.4999760000001
 21
5.669848981077732
  0
CIRCLE
  5
22F
100
AcDbEntity
  8
Aide PériPhérique
  6
ByLayer
 62
  256
370
   -1
100
AcDbCircle
 10
177.4999999999999
 20
4.999999999999019
 40
3
  0
LINE
  5
230
100
AcDbEntity
  8
Aide PériPhérique
  6
ByLayer
 62
  256
370
   -1
100
AcDbLine
 10
229.9999760000001
 20
9.999976000000681
 11
227.4999760000001
 21
5.66984898107723
  0
LINE
  5
231
100
AcDbEntity
  8
Aide PériPhérique
  6
ByLayer
 62
  256
370
   -1
100
AcDbLine
 10
229.9999760000001
 20
9.999976000000681
 11
232.4999760000001
 21
5.669848981077044
  0
LINE
  5
232
100
AcDbEntity
  8
Aide PériPhérique
  6
ByLayer
 62
  256
370
   -1
100
AcDbLine
 10
227.4999760000001
 20
5.66984898107723
 11
232.4999760000001
 21
5.669848981077044
  0
CIRCLE
  5
233
100
AcDbEntity
  8
Aide PériPhérique
  6
ByLayer
 62
  256
370
   -1
100
AcDbCircle
 10
72.49999999999999
 20
4.999999999999932
 40
3
  0
MTEXT
  5
234
100
AcDbEntity
  8
Aide PériPhérique
  6
ByLayer
 62
  256
370
   -1
100
AcDbMText
 10
72.49999999999999
 20
4.999999999999932
 30
0
 40
4
 41
0.8888888888888888
 71
    5
 72
    5
  1
1
  7
iso
210
0
220
0
230
1
 50
0
 73
    2
 44
0.96
  0
MTEXT
  5
235
100
AcDbEntity
  8
Aide PériPhérique
  6
ByLayer
 62
  256
370
   -1
100
AcDbMText
 10
177.4999999999999
 20
4.999999999999019
 30
0
 40
4
 41
1.777777777777778
 71
    5
 72
    5
  1
2
  7
iso
210
0
220
0
230
1
 50
0
 73
    2
 44
0.96
  0
CIRCLE
  5
236
100
AcDbEntity
  8
Aide PériPhérique
  6
ByLayer
 62
  256
370
   -1
100
AcDbCircle
 10
278
 20
5.000000000000104
 40
3
  0
MTEXT
  5
237
100
AcDbEntity
  8
Aide PériPhérique
  6
ByLayer
 62
  256
370
   -1
100
AcDbMText
 10
278
 20
5.000000000000104
 30
0
 40
4
 41
1.777777777778026
 71
    5
 72
    5
  1
3
  7
iso
210
0
220
0
230
1
 50
0
 73
    2
 44
0.96
  0
LINE
  5
238
100
AcDbEntity
  8
Aide PériPhérique
  6
ByLayer
 62
  256
370
   -1
100
AcDbLine
 10
315
 20
9.999975999999624
 11
312.5
 21
5.66984898107766
  0
LINE
  5
239
100
AcDbEntity
  8
Aide PériPhérique
  6
ByLayer
 62
  256
370
   -1
100
AcDbLine
 10
315
 20
9.999975999999624
 11
317.5
 21
5.669848981077923
  0
LINE
  5
23A
100
AcDbEntity
  8
Aide PériPhérique
  6
ByLayer
 62
  256
370
   -1
100
AcDbLine
 10
312.5
 20
5.66984898107766
 11
317.5
 21
5.669848981077923
  0
CIRCLE
  5
23B
100
AcDbEntity
  8
Aide PériPhérique
  6
ByLayer
 62
  256
370
   -1
100
AcDbCircle
 10
363.0000239999999
 20
4.999999999999614
 40
3
  0
MTEXT
  5
23C
100
AcDbEntity
  8
Aide PériPhérique
  6
ByLayer
 62
  256
370
   -1
100
AcDbMText
 10
363.0000239999999
 20
4.999999999999614
 30
0
 40
4
 41
2.222222222222222
 71
    5
 72
    5
  1
4
  7
iso
210
0
220
0
230
1
 50
0
 73
    2
 44
0.96
  0
LINE
  5
23D
100
AcDbEntity
  8
Aide PériPhérique
  6
ByLayer
 62
  256
370
   -1
100
AcDbLine
 10
420
 20
0
 11
420
 21
297
  0
LINE
  5
23E
100
AcDbEntity
  8
Aide PériPhérique
  6
ByLayer
 62
  256
370
   -1
100
AcDbLine
 10
3.55e-014
 20
0
 11
420
 21
0
  0
LINE
  5
23F
100
AcDbEntity
  8
Aide PériPhérique
  6
ByLayer
 62
  256
370
   -1
100
AcDbLine
 10
124.9999999999999
 20
297.0000000000002
 11
125
 21
287
  0
LINE
  5
240
100
AcDbEntity
  8
Aide PériPhérique
  6
ByLayer
 62
  256
370
   -1
100
AcDbLine
 10
229.9999999999999
 20
297.0000000000002
 11
230
 21
287
  0
LINE
  5
241
100
AcDbEntity
  8
Aide PériPhérique
  6
ByLayer
 62
  256
370
   -1
100
AcDbLine
 10
124.999976
 20
287.0000239999999
 11
122.4999759999999
 21
291.3301510189223
  0
LINE
  5
242
100
AcDbEntity
  8
Aide PériPhérique
  6
ByLayer
 62
  256
370
   -1
100
AcDbLine
 10
124.999976
 20
287.0000239999999
 11
127.4999760000001
 21
291.3301510189222
  0
LINE
  5
243
100
AcDbEntity
  8
Aide PériPhérique
  6
ByLayer
 62
  256
370
   -1
100
AcDbLine
 10
122.4999759999999
 20
291.3301510189223
 11
127.4999760000001
 21
291.3301510189222
  0
CIRCLE
  5
244
100
AcDbEntity
  8
Aide PériPhérique
  6
ByLayer
 62
  256
370
   -1
100
AcDbCircle
 10
177.4999999999999
 20
292.0000000000001
 40
3
  0
LINE
  5
245
100
AcDbEntity
  8
Aide PériPhérique
  6
ByLayer
 62
  256
370
   -1
100
AcDbLine
 10
229.9999760000001
 20
287.000024
 11
227.4999760000001
 21
291.3301510189222
  0
LINE
  5
246
100
AcDbEntity
  8
Aide PériPhérique
  6
ByLayer
 62
  256
370
   -1
100
AcDbLine
 10
229.9999760000001
 20
287.000024
 11
232.4999759999999
 21
291.3301510189223
  0
LINE
  5
247
100
AcDbEntity
  8
Aide PériPhérique
  6
ByLayer
 62
  256
370
   -1
100
AcDbLine
 10
227.4999760000001
 20
291.3301510189222
 11
232.4999759999999
 21
291.3301510189223
  0
CIRCLE
  5
248
100
AcDbEntity
  8
Aide PériPhérique
  6
ByLayer
 62
  256
370
   -1
100
AcDbCircle
 10
72.49999999999997
 20
292
 40
3
  0
MTEXT
  5
249
100
AcDbEntity
  8
Aide PériPhérique
  6
ByLayer
 62
  256
370
   -1
100
AcDbMText
 10
72.49999999999997
 20
292
 30
0
 40
4
 41
0.8888888888888888
 71
    5
 72
    5
  1
1
  7
iso
210
0
220
0
230
1
 50
0
 73
    2
 44
0.96
  0
MTEXT
  5
24A
100
AcDbEntity
  8
Aide PériPhérique
  6
ByLayer
 62
  256
370
   -1
100
AcDbMText
 10
177.4999999999999
 20
292.0000000000001
 30
0
 40
4
 41
1.777777777777778
 71
    5
 72
    5
  1
2
  7
iso
210
0
220
0
230
1
 50
0
 73
    2
 44
0.96
  0
CIRCLE
  5
24B
100
AcDbEntity
  8
Aide PériPhérique
  6
ByLayer
 62
  256
370
   -1
100
AcDbCircle
 10
278
 20
292
 40
3
  0
MTEXT
  5
24C
100
AcDbEntity
  8
Aide PériPhérique
  6
ByLayer
 62
  256
370
   -1
100
AcDbMText
 10
278
 20
292
 30
0
 40
4
 41
1.777777777778026
 71
    5
 72
    5
  1
3
  7
iso
210
0
220
0
230
1
 50
0
 73
    2
 44
0.96
  0
LINE
  5
24D
100
AcDbEntity
  8
Aide PériPhérique
  6
ByLayer
 62
  256
370
   -1
100
AcDbLine
 10
315
 20
287.0000240000001
 11
312.4999999999999
 21
291.3301510189223
  0
LINE
  5
24E
100
AcDbEntity
  8
Aide PériPhérique
  6
ByLayer
 62
  256
370
   -1
100
AcDbLine
 10
315
 20
287.0000240000001
 11
317.4999999999999
 21
291.3301510189222
  0
LINE
  5
24F
100
AcDbEntity
  8
Aide PériPhérique
  6
ByLayer
 62
  256
370
   -1
100
AcDbLine
 10
312.4999999999999
 20
291.3301510189223
 11
317.4999999999999
 21
291.3301510189222
  0
CIRCLE
  5
250
100
AcDbEntity
  8
Aide PériPhérique
  6
ByLayer
 62
  256
370
   -1
100
AcDbCircle
 10
363.0000239999999
 20
292.0000000000003
 40
3
  0
MTEXT
  5
251
100
AcDbEntity
  8
Aide PériPhérique
  6
ByLayer
 62
  256
370
   -1
100
AcDbMText
 10
363.0000239999999
 20
292.0000000000003
 30
0
 40
4
 41
2.222222222222222
 71
    5
 72
    5
  1
4
  7
iso
210
0
220
0
230
1
 50
0
 73
    2
 44
0.96
  0
MTEXT
  5
252
100
AcDbEntity
  8
text
  6
ByLayer
 62
  256
370
   -1
100
AcDbMText
 10
223.114746
 20
15.12517929166619
 30
0
 40
2.5
 41
3.055555555555555
 71
    7
 72
    5
  1
A1
  7
normal#0.500000#1.200000
210
0
220
0
230
1
 50
0
 73
    1
 44
0.96
  0
MTEXT
  5
253
100
AcDbEntity
  8
text
  6
ByLayer
 62
  256
370
   -1
100
AcDbMText
 10
232.2019345855434
 20
14.2918448093763
 30
0
 40
2.5
 41
20.76389017460735
 71
    7
 72
    5
  1
initial design
  7
normal#0.500000#1.200000
210
0
220
0
230
1
 50
0
 73
    1
 44
0.96
  0
MTEXT
  5
254
100
AcDbEntity
  8
text
  6
ByLayer
 62
  256
370
   -1
100
AcDbMText
 10
256.6190678060468
 20
15.12521522463579
 30
0
 40
2.5
 41
13.05555555555556
 71
    7
 72
    5
  1
01/01/01
  7
iso8859-11
210
0
220
0
230
1
 50
0
 73
    1
 44
0.96
  0
MTEXT
  5
255
100
AcDbEntity
  8
text
  6
ByLayer
 62
  256
370
   -1
100
AcDbMText
 10
270.6709291036141
 20
15.12514832890515
 30
0
 40
2.5
 41
5.555555555555865
 71
    7
 72
    5
  1
DDil
  7
normal#0.200000#1.200000
210
0
220
0
230
1
 50
0
 73
    1
 44
0.96
  0
MTEXT
  5
256
100
AcDbEntity
  8
text
  6
ByLayer
 62
  256
370
   -1
100
AcDbMText
 10
288.1130369999998
 20
40.62504166667172
 30
0
 40
2.5
 41
14.44444444444444
 71
    7
 72
    5
  1
07/01/04
  7
normal#0.500000#1.200000
210
0
220
0
230
1
 50
0
 73
    1
 44
0.96
  0
MTEXT
  5
257
100
AcDbEntity
  8
text
  6
ByLayer
 62
  256
370
   -1
100
AcDbMText
 10
288.2989499999999
 20
36.3751386666716
 30
0
 40
2.5
 41
4.722222222222339
 71
    7
 72
    5
  1
tbd
  7
normal#0.500000#1.200000
210
0
220
0
230
1
 50
0
 73
    1
 44
0.96
  0
MTEXT
  5
258
100
AcDbEntity
  8
text
  6
ByLayer
 62
  256
370
   -1
100
AcDbMText
 10
288.2989499999999
 20
32.12510266667161
 30
0
 40
2.5
 41
4.722222222222339
 71
    7
 72
    5
  1
tbd
  7
normal#0.500000#1.200000
210
0
220
0
230
1
 50
0
 73
    1
 44
0.96
  0
MTEXT
  5
259
100
AcDbEntity
  8
text
  6
ByLayer
 62
  256
370
   -1
100
AcDbMText
 10
303.713043
 20
40.62503216667014
 30
0
 40
2.5
 41
3.055555555555672
 71
    7
 72
    5
  1
dil
  7
normal#0.500000#1.200000
210
0
220
0
230
1
 50
0
 73
    1
 44
0.96
  0
MTEXT
  5
25A
100
AcDbEntity
  8
text
  6
ByLayer
 62
  256
370
   -1
100
AcDbMText
 10
303.898956
 20
36.37512916667013
 30
0
 40
2.5
 41
3.055555555555672
 71
    7
 72
    5
  1
dil
  7
normal#0.500000#1.200000
210
0
220
0
230
1
 50
0
 73
    1
 44
0.96
  0
MTEXT
  5
25B
100
AcDbEntity
  8
text
  6
ByLayer
 62
  256
370
   -1
100
AcDbMText
 10
303.898956
 20
32.12509316667014
 30
0
 40
2.5
 41
3.055555555555672
 71
    7
 72
    5
  1
dil
  7
normal#0.500000#1.200000
210
0
220
0
230
1
 50
0
 73
    1
 44
0.96
  0
MTEXT
  5
25C
100
AcDbEntity
  8
text
  6
ByLayer
 62
  256
370
   -1
100
AcDbMText
 10
364.9090859750838
 20
38.6401480202294
 30
0
 40
4
 41
13.66819055476531
 71
    5
 72
    5
  1
title\Psub t
  7
iso
210
0
220
0
230
1
 50
0
 73
    2
 44
0.96
  0
MTEXT
  5
25D
100
AcDbEntity
  8
text
  6
ByLayer
 62
  256
370
   -1
100
AcDbMText
 10
368.494254348095
 20
20.51513013445166
 30
0
 40
8
 41
38.22222222222321
 71
    5
 72
    5
  1
DD00NN
  7
iso
210
0
220
0
230
1
 50
0
 73
    2
 44
0.96
  0
MTEXT
  5
25E
100
AcDbEntity
  8
text
  6
ByLayer
 62
  256
370
   -1
100
AcDbMText
 10
293.7897215674873
 20
10.04173023270097
 30
0
 40
2.5
 41
11.38888888888901
 71
    7
 72
    5
  1
project
  7
normal#0.500000#1.200000
210
0
220
0
230
1
 50
0
 73
    1
 44
0.96
  0
MTEXT
  5
25F
100
AcDbEntity
  8
text
  6
ByLayer
 62
  256
370
   -1
100
AcDbMText
 10
403.1508819538676
 20
21.71018625878866
 30
0
 40
4
 41
6.222222222222221
 71
    5
 72
    5
  1
1/1
  7
iso
210
0
220
0
230
1
 50
0
 73
    2
 44
0.96
  0
MTEXT
  5
260
100
AcDbEntity
  8
text
  6
ByLayer
 62
  256
370
   -1
100
AcDbMText
 10
277.898956
 20
36.37514499999961
 30
0
 40
2.5
 41
8.333333333333567
 71
    7
 72
    5
  1
check
  7
normal#0.500000#1.200000
210
0
220
0
230
1
 50
0
 73
    1
 44
0.96
  0
ENDBLK
  5
6A
330
68
100
AcDbEntity
  8
0
100
AcDbBlockEnd
  0
BLOCK
  5
6C
330
6B
100
AcDbEntity
  8
0
100
AcDbBlockBegin
  2
a3-3
 70
    0
 10
0
 20
0
  3
a3-3
  1

  0
HATCH
  5
261
100
AcDbEntity
  8
6_hatch
  6
ByLayer
 62
  256
370
   -1
100
AcDbHatch
 10
0
 20
0
 30
0
210
0
220
0
230
1
  2
ansi31
 70
    0
 71
    0
 91
    1
 92
    0
 93
    3
 72
    1
 10
124.999976
 20
287.0000239999999
 11
122.4999759999999
 21
291.3301510189223
 72
    1
 10
122.4999759999999
 20
291.3301510189223
 11
127.499976
 21
291.3301510189222
 72
    1
 10
127.499976
 20
291.3301510189222
 11
124.999976
 21
287.0000239999999
 97
    0
 75
    0
 76
    1
 52
4.71238898038469
 41
0.5
 77
    0
 78
    0
 98
    0
  0
HATCH
  5
262
100
AcDbEntity
  8
6_hatch
  6
ByLayer
 62
  256
370
   -1
100
AcDbHatch
 10
0
 20
0
 30
0
210
0
220
0
230
1
  2
ansi31
 70
    0
 71
    0
 91
    1
 92
    0
 93
    3
 72
    1
 10
229.9999760000001
 20
287.0000239999999
 11
227.4999760000001
 21
291.3301510189222
 72
    1
 10
227.4999760000001
 20
291.3301510189222
 11
232.4999759999999
 21
291.3301510189223
 72
    1
 10
232.4999759999999
 20
291.3301510189223
 11
229.9999760000001
 21
287.0000239999999
 97
    0
 75
    0
 76
    1
 52
4.71238898038469
 41
0.5
 77
    0
 78
    0
 98
    0
  0
HATCH
  5
263
100
AcDbEntity
  8
6_hatch
  6
ByLayer
 62
  256
370
   -1
100
AcDbHatch
 10
0
 20
0
 30
0
210
0
220
0
230
1
  2
ansi31
 70
    0
 71
    0
 91
    1
 92
    0
 93
    3
 72
    1
 10
314.9999999999999
 20
287.0000240000001
 11
312.4999999999999
 21
291.3301510189223
 72
    1
 10
312.4999999999999
 20
291.3301510189223
 11
317.4999999999999
 21
291.3301510189223
 72
    1
 10
317.4999999999999
 20
291.3301510189223
 11
314.9999999999999
 21
287.0000240000001
 97
    0
 75
    0
 76
    1
 52
4.71238898038469
 41
0.5
 77
    0
 78
    0
 98
    0
  0
HATCH
  5
264
100
AcDbEntity
  8
6_hatch
  6
ByLayer
 62
  256
370
   -1
100
AcDbHatch
 10
0
 20
0
 30
0
210
0
220
0
230
1
  2
ansi31
 70
    0
 71
    0
 91
    1
 92
    0
 93
    3
 72
    1
 10
315
 20
9.999976000000061
 11
312.5
 21
5.669848981077877
 72
    1
 10
312.5
 20
5.669848981077877
 11
317.5
 21
5.669848981077905
 72
    1
 10
317.5
 20
5.669848981077905
 11
315
 21
9.999976000000061
 97
    0
 75
    0
 76
    1
 52
4.71238898038469
 41
0.5
 77
    0
 78
    0
 98
    0
  0
HATCH
  5
265
100
AcDbEntity
  8
6_hatch
  6
ByLayer
 62
  256
370
   -1
100
AcDbHatch
 10
0
 20
0
 30
0
210
0
220
0
230
1
  2
ansi31
 70
    0
 71
    0
 91
    1
 92
    0
 93
    3
 72
    1
 10
229.9999760000001
 20
9.999976000000089
 11
227.4999760000001
 21
5.669848981077877
 72
    1
 10
227.4999760000001
 20
5.669848981077877
 11
232.4999760000001
 21
5.669848981077877
 72
    1
 10
232.4999760000001
 20
5.669848981077877
 11
229.9999760000001
 21
9.999976000000089
 97
    0
 75
    0
 76
    1
 52
4.71238898038469
 41
0.5
 77
    0
 78
    0
 98
    0
  0
HATCH
  5
266
100
AcDbEntity
  8
6_hatch
  6
ByLayer
 62
  256
370
   -1
100
AcDbHatch
 10
0
 20
0
 30
0
210
0
220
0
230
1
  2
ansi31
 70
    0
 71
    0
 91
    1
 92
    0
 93
    3
 72
    1
 10
124.9999760000001
 20
9.999976000000061
 11
122.499976
 21
5.669848981077848
 72
    1
 10
122.499976
 20
5.669848981077848
 11
127.4999760000001
 21
5.669848981077848
 72
    1
 10
127.4999760000001
 20
5.669848981077848
 11
124.9999760000001
 21
9.999976000000061
 97
    0
 75
    0
 76
    1
 52
4.71238898038469
 41
0.5
 77
    0
 78
    0
 98
    0
  0
HATCH
  5
267
100
AcDbEntity
  8
6_hatch
  6
ByLayer
 62
  256
370
   -1
100
AcDbHatch
 10
0
 20
0
 30
0
210
0
220
0
230
1
  2
ansi31
 70
    0
 71
    0
 91
    1
 92
    0
 93
    3
 72
    1
 10
410.0000000000002
 20
148.5000000000001
 11
414.3301270189227
 21
146.0000000000002
 72
    1
 10
414.3301270189227
 20
146.0000000000002
 11
414.3301270189222
 21
150.9999999999998
 72
    1
 10
414.3301270189222
 20
150.9999999999998
 11
410.0000000000002
 21
148.5000000000001
 97
    0
 75
    0
 76
    1
 52
3.141592653589793
 41
0.5
 77
    0
 78
    0
 98
    0
  0
HATCH
  5
268
100
AcDbEntity
  8
6_hatch
  6
ByLayer
 62
  256
370
   -1
100
AcDbHatch
 10
0
 20
0
 30
0
210
0
220
0
230
1
  2
ansi31
 70
    0
 71
    0
 91
    1
 92
    0
 93
    3
 72
    1
 10
19.99999999999989
 20
148.5
 11
15.66987298107769
 21
146
 72
    1
 10
15.66987298107769
 20
146
 11
15.66987298107769
 21
151
 72
    1
 10
15.66987298107769
 20
151
 11
19.99999999999989
 21
148.5
 97
    0
 75
    0
 76
    1
 52
0
 41
0.5
 77
    0
 78
    0
 98
    0
  0
CIRCLE
  5
269
100
AcDbEntity
  8
Aide PériPhérique
  6
ByLayer
 62
  256
370
   -1
100
AcDbCircle
 10
15.00000000000003
 20
222.7500000000001
 40
3
  0
LINE
  5
26A
100
AcDbEntity
  8
Aide PériPhérique
  6
ByLayer
 62
  256
370
   -1
100
AcDbLine
 10
19.99999999999989
 20
148.5
 11
15.66987298107769
 21
146
  0
LINE
  5
26B
100
AcDbEntity
  8
Aide PériPhérique
  6
ByLayer
 62
  256
370
   -1
100
AcDbLine
 10
19.99999999999989
 20
148.5
 11
15.66987298107769
 21
151
  0
LINE
  5
26C
100
AcDbEntity
  8
Aide PériPhérique
  6
ByLayer
 62
  256
370
   -1
100
AcDbLine
 10
15.66987298107769
 20
146
 11
15.66987298107769
 21
151
  0
CIRCLE
  5
26D
100
AcDbEntity
  8
Aide PériPhérique
  6
ByLayer
 62
  256
370
   -1
100
AcDbCircle
 10
15
 20
74.25000000000011
 40
3
  0
MTEXT
  5
26E
100
AcDbEntity
  8
Aide PériPhérique
  6
ByLayer
 62
  256
370
   -1
100
AcDbMText
 10
15
 20
74.25000000000011
 30
0
 40
4
 41
2.666666666666667
 71
    5
 72
    5
  1
A
  7
iso
210
0
220
0
230
1
 50
6.283185307179586
 73
    2
 44
0.96
  0
MTEXT
  5
26F
100
AcDbEntity
  8
Aide PériPhérique
  6
ByLayer
 62
  256
370
   -1
100
AcDbMText
 10
15.00000000000003
 20
222.7500000000001
 30
0
 40
4
 41
2.222222222222222
 71
    5
 72
    5
  1
B
  7
iso
210
0
220
0
230
1
 50
6.283185307179586
 73
    2
 44
0.96
  0
LINE
  5
270
100
AcDbEntity
  8
Cadre Extérieur
  6
CONTINUOUS
 62
    7
370
    0
100
AcDbLine
 10
20.00000000000002
 20
287
 11
20
 21
10
  0
LINE
  5
271
100
AcDbEntity
  8
Aide PériPhérique
  6
ByLayer
 62
  256
370
   -1
100
AcDbLine
 10
2.57e-014
 20
297
 11
0
 21
0
  0
LINE
  5
272
100
AcDbEntity
  8
Cadre Extérieur
  6
CONTINUOUS
 62
    7
370
    0
100
AcDbLine
 10
20
 20
10
 11
410
 21
10
  0
LINE
  5
273
100
AcDbEntity
  8
Cadre Extérieur
  6
CONTINUOUS
 62
    7
370
    0
100
AcDbLine
 10
373.600021
 20
65.250094
 11
373.600021
 21
58.875052
  0
LINE
  5
274
100
AcDbEntity
  8
Cadre Extérieur
  6
CONTINUOUS
 62
    7
370
    0
100
AcDbLine
 10
397
 20
26.999987
 11
397
 21
14.250042
  0
LINE
  5
275
100
AcDbEntity
  8
Cadre Extérieur
  6
CONTINUOUS
 62
    7
370
    0
100
AcDbLine
 10
365.8000340000001
 20
14.250107
 11
365.8000340000001
 21
10.000098
  0
LINE
  5
276
100
AcDbEntity
  8
Cadre Extérieur
  6
CONTINUOUS
 62
    7
370
    0
100
AcDbLine
 10
303.400024
 20
65.250097
 11
303.400024
 21
27.000059
  0
LINE
  5
277
100
AcDbEntity
  8
Cadre Extérieur
  6
CONTINUOUS
 62
    7
370
    0
100
AcDbLine
 10
287.8000179999999
 20
48.25009
 11
287.8000179999999
 21
27.000136
  0
LINE
  5
278
100
AcDbEntity
  8
Cadre Extérieur
  6
CONTINUOUS
 62
    7
370
    0
100
AcDbLine
 10
277.400024
 20
65.25009
 11
277.400024
 21
10.000094
  0
LINE
  5
279
100
AcDbEntity
  8
Cadre Extérieur
  6
CONTINUOUS
 62
    7
370
    0
100
AcDbLine
 10
321.6000059999999
 20
65.250139
 11
321.6000059999999
 21
10.000097
  0
LINE
  5
27A
100
AcDbEntity
  8
Cadre Extérieur
  6
CONTINUOUS
 62
    7
370
    0
100
AcDbLine
 10
269.6000059999999
 20
48.250082
 11
269.6000369999999
 21
10.000099
  0
LINE
  5
27B
100
AcDbEntity
  8
Cadre Extérieur
  6
CONTINUOUS
 62
    7
370
    0
100
AcDbLine
 10
256.6000059999999
 20
48.250101
 11
256.6000059999999
 21
10.000091
  0
LINE
  5
27C
100
AcDbEntity
  8
Cadre Extérieur
  6
CONTINUOUS
 62
    7
370
    0
100
AcDbLine
 10
230.600006
 20
48.250113
 11
230.600006
 21
10.000093
  0
LINE
  5
27D
100
AcDbEntity
  8
Cadre Extérieur
  6
CONTINUOUS
 62
    7
370
    0
100
AcDbLine
 10
222.800018
 20
31.250075
 11
321.6000059999999
 21
31.250092
  0
LINE
  5
27E
100
AcDbEntity
  8
Cadre Extérieur
  6
CONTINUOUS
 62
    7
370
    0
100
AcDbLine
 10
222.800018
 20
35.50008
 11
321.6000059999999
 21
35.500115
  0
LINE
  5
27F
100
AcDbEntity
  8
Cadre Extérieur
  6
CONTINUOUS
 62
    7
370
    0
100
AcDbLine
 10
222.800018
 20
39.750116
 11
321.6000369999999
 21
39.750067
  0
LINE
  5
280
100
AcDbEntity
  8
Cadre Extérieur
  6
CONTINUOUS
 62
    7
370
    0
100
AcDbLine
 10
222.800018
 20
44.000097
 11
321.6000369999999
 21
44.000086
  0
LINE
  5
281
100
AcDbEntity
  8
Cadre Extérieur
  6
CONTINUOUS
 62
    7
370
    0
100
AcDbLine
 10
222.800018
 20
22.750055
 11
277.400024
 21
22.750061
  0
LINE
  5
282
100
AcDbEntity
  8
Cadre Extérieur
  6
CONTINUOUS
 62
    7
370
    0
100
AcDbLine
 10
222.800018
 20
18.500054
 11
277.400024
 21
18.500122
  0
LINE
  5
283
100
AcDbEntity
  8
Cadre Extérieur
  6
CONTINUOUS
 62
    7
370
    0
100
AcDbLine
 10
321.6000059999999
 20
58.87512
 11
410
 21
58.87504
  0
LINE
  5
284
100
AcDbEntity
  8
Cadre Extérieur
  6
CONTINUOUS
 62
    7
370
    0
100
AcDbLine
 10
222.800018
 20
14.250083
 11
410
 21
14.25009
  0
LINE
  5
285
100
AcDbEntity
  8
Cadre Extérieur
  6
CONTINUOUS
 62
    7
370
    0
100
AcDbLine
 10
222.800018
 20
48.250086
 11
410.000061
 21
48.250101
  0
LINE
  5
286
100
AcDbEntity
  8
Cadre Extérieur
  6
CONTINUOUS
 62
    7
370
    0
100
AcDbLine
 10
222.800018
 20
27.000107
 11
410.000061
 21
26.999993
  0
LINE
  5
287
100
AcDbEntity
  8
Cadre Extérieur
  6
CONTINUOUS
 62
    7
370
    0
100
AcDbLine
 10
222.800018
 20
65.250086
 11
410
 21
65.25016599999999
  0
LINE
  5
288
100
AcDbEntity
  8
Cadre Extérieur
  6
CONTINUOUS
 62
    7
370
    0
100
AcDbLine
 10
410.000061
 20
65.250181
 11
410
 21
10
  0
LINE
  5
289
100
AcDbEntity
  8
Cadre Extérieur
  6
CONTINUOUS
 62
    7
370
    0
100
AcDbLine
 10
410
 20
10
 11
222.800018
 21
10.000101
  0
LINE
  5
28A
100
AcDbEntity
  8
Cadre Extérieur
  6
CONTINUOUS
 62
    7
370
    0
100
AcDbLine
 10
222.800018
 20
65.250086
 11
222.800018
 21
10.000101
  0
LINE
  5
28B
100
AcDbEntity
  8
Symbol ISO
  6
DASHDOT
 62
    7
370
    0
100
AcDbLine
 10
280.2711420000001
 20
57.242876
 11
300.2711420000001
 21
57.242876
  0
CIRCLE
  5
28C
100
AcDbEntity
  8
Symbol ISO
  6
CONTINUOUS
 62
    7
370
    0
100
AcDbCircle
 10
295.4711420000001
 20
57.242876
 40
2.8
  0
CIRCLE
  5
28D
100
AcDbEntity
  8
Symbol ISO
  6
CONTINUOUS
 62
    7
370
    0
100
AcDbCircle
 10
295.4711420000001
 20
57.242876
 40
1.6
  0
LINE
  5
28E
100
AcDbEntity
  8
Symbol ISO
  6
CONTINUOUS
 62
    7
370
    0
100
AcDbLine
 10
282.6711419999999
 20
58.842876
 11
282.6711419999999
 21
55.642876
  0
LINE
  5
28F
100
AcDbEntity
  8
Symbol ISO
  6
CONTINUOUS
 62
    7
370
    0
100
AcDbLine
 10
282.6711419999999
 20
55.642876
 11
289.071142
 21
54.442876
  0
LINE
  5
290
100
AcDbEntity
  8
Symbol ISO
  6
CONTINUOUS
 62
    7
370
    0
100
AcDbLine
 10
289.071142
 20
60.042876
 11
289.071142
 21
54.442876
  0
LINE
  5
291
100
AcDbEntity
  8
Symbol ISO
  6
CONTINUOUS
 62
    7
370
    0
100
AcDbLine
 10
282.6711419999999
 20
58.842876
 11
289.071142
 21
60.042876
  0
LINE
  5
292
100
AcDbEntity
  8
Symbol ISO
  6
DASHDOT
 62
    7
370
    0
100
AcDbLine
 10
295.4711420000001
 20
52.442876
 11
295.4711420000001
 21
62.042876
  0
MTEXT
  5
293
100
AcDbEntity
  8
text
  6
ByLayer
 62
  256
370
   -1
100
AcDbMText
 10
322.726257
 20
60.81260492786925
 30
0
 40
2.5
 41
18.88984131895054
 71
    7
 72
    5
  1
scale  1 : 1
  7
normal#0.500000#1.500000
210
0
220
0
230
1
 50
0
 73
    1
 44
0.96
  0
MTEXT
  5
294
100
AcDbEntity
  8
text
  6
ByLayer
 62
  256
370
   -1
100
AcDbMText
 10
374.726242
 20
60.53487722222222
 30
0
 40
2.5
 41
9.722224238102887
 71
    7
 72
    5
  1
(mass)
  7
normal#0.500000#1.500000
210
0
220
0
230
1
 50
0
 73
    1
 44
0.96
  0
MTEXT
  5
295
100
AcDbEntity
  8
text
  6
ByLayer
 62
  256
370
   -1
100
AcDbMText
 10
322.7620850000001
 20
54.51309666666666
 30
0
 40
2.5
 41
38.68055628571858
 71
    7
 72
    5
  1
(material, specification)
  7
normal#0.500000#1.500000
210
0
220
0
230
1
 50
0
 73
    1
 44
0.96
  0
MTEXT
  5
296
100
AcDbEntity
  8
text
  6
ByLayer
 62
  256
370
   -1
100
AcDbMText
 10
290.6053770000001
 20
44.87508999999989
 30
0
 40
2.5
 41
6.6666666666669
 71
    7
 72
    5
  1
date
  7
normal#0.500000#1.200000
210
0
220
0
230
1
 50
0
 73
    1
 44
0.96
  0
MTEXT
  5
297
100
AcDbEntity
  8
text
  6
ByLayer
 62
  256
370
   -1
100
AcDbMText
 10
308.1733400000001
 20
44.87508199999989
 30
0
 40
2.5
 41
7.500000000000348
 71
    7
 72
    5
  1
name
  7
normal#0.500000#1.200000
210
0
220
0
230
1
 50
0
 73
    1
 44
0.96
  0
MTEXT
  5
298
100
AcDbEntity
  8
text
  6
ByLayer
 62
  256
370
   -1
100
AcDbMText
 10
277.713043
 20
39.79171466666655
 30
0
 40
2.5
 41
8.611112396829338
 71
    7
 72
    5
  1
desig.
  7
normal#0.500000#1.200000
210
0
220
0
230
1
 50
0
 73
    1
 44
0.96
  0
MTEXT
  5
299
100
AcDbEntity
  8
text
  6
ByLayer
 62
  256
370
   -1
100
AcDbMText
 10
277.898956
 20
36.37514499999989
 30
0
 40
2.5
 41
11.38888888888912
 71
    7
 72
    5
  1
check'd
  7
normal#0.500000#1.200000
210
0
220
0
230
1
 50
0
 73
    1
 44
0.96
  0
MTEXT
  5
29A
100
AcDbEntity
  8
text
  6
ByLayer
 62
  256
370
   -1
100
AcDbMText
 10
277.898956
 20
32.12510899999989
 30
0
 40
2.5
 41
7.500000000000234
 71
    7
 72
    5
  1
auth.
  7
normal#0.500000#1.200000
210
0
220
0
230
1
 50
0
 73
    1
 44
0.96
  0
MTEXT
  5
29B
100
AcDbEntity
  8
text
  6
ByLayer
 62
  256
370
   -1
100
AcDbMText
 10
223.114746
 20
10.87509599999988
 30
0
 40
2.5
 41
3.888888888888967
 71
    7
 72
    5
  1
loc
  7
normal#0.500000#1.200000
210
0
220
0
230
1
 50
0
 73
    1
 44
0.96
  0
MTEXT
  5
29C
100
AcDbEntity
  8
text
  6
ByLayer
 62
  256
370
   -1
100
AcDbMText
 10
236.185455
 20
10.04176166666655
 30
0
 40
2.5
 41
10.55555555555614
 71
    7
 72
    5
  1
change
  7
normal#0.500000#1.200000
210
0
220
0
230
1
 50
0
 73
    1
 44
0.96
  0
MTEXT
  5
29D
100
AcDbEntity
  8
text
  6
ByLayer
 62
  256
370
   -1
100
AcDbMText
 10
258.411652
 20
10.87513199999988
 30
0
 40
2.5
 41
6.6666666666669
 71
    7
 72
    5
  1
date
  7
normal#0.500000#1.200000
210
0
220
0
230
1
 50
0
 73
    1
 44
0.96
  0
MTEXT
  5
29E
100
AcDbEntity
  8
text
  6
ByLayer
 62
  256
370
   -1
100
AcDbMText
 10
269.6750489999999
 20
10.87506499999988
 30
0
 40
2.5
 41
7.500000000000348
 71
    7
 72
    5
  1
name
  7
normal#0.200000#1.200000
210
0
220
0
230
1
 50
0
 73
    1
 44
0.96
  0
MTEXT
  5
29F
100
AcDbEntity
  8
text
  6
ByLayer
 62
  256
370
   -1
100
AcDbMText
 10
278.6523440000001
 20
10.04172966666655
 30
0
 40
2.5
 41
11.38888888888901
 71
    7
 72
    5
  1
project
  7
normal#0.500000#1.200000
210
0
220
0
230
1
 50
0
 73
    1
 44
0.96
  0
MTEXT
  5
2A0
100
AcDbEntity
  8
text
  6
ByLayer
 62
  256
370
   -1
100
AcDbMText
 10
323.2767329999999
 20
10.04178766666667
 30
0
 40
2.5
 41
13.33333461905145
 71
    7
 72
    5
  1
replaces
  7
normal#0.500000#1.500000
210
0
220
0
230
1
 50
0
 73
    1
 44
0.96
  0
MTEXT
  5
2A1
100
AcDbEntity
  8
text
  6
ByLayer
 62
  256
370
   -1
100
AcDbMText
 10
367.4767300000001
 20
10.04186066666667
 30
0
 40
2.5
 41
19.09722222222246
 71
    7
 72
    5
  1
replaced by
  7
normal#0.500000#1.500000
210
0
220
0
230
1
 50
0
 73
    1
 44
0.96
  0
MTEXT
  5
2A2
100
AcDbEntity
  8
text
  6
ByLayer
 62
  256
370
   -1
100
AcDbMText
 10
399.839905
 20
15.2375699422954
 30
0
 40
2
 41
6.889650832938209
 71
    7
 72
    5
  1
sheet
  7
normal#0.500000#0.900000
210
0
220
0
230
1
 50
0
 73
    1
 44
0.96
  0
MTEXT
  5
2A3
100
AcDbEntity
  8
text
  6
ByLayer
 62
  256
370
   -1
100
AcDbMText
 10
322.496576
 20
27.91470066666667
 30
0
 40
2.5
 41
16.59722222222269
 71
    7
 72
    5
  1
part name
  7
normal#0.500000#0.900000
210
0
220
0
230
1
 50
0
 73
    1
 44
0.96
  0
MTEXT
  5
2A4
100
AcDbEntity
  8
text
  6
ByLayer
 62
  256
370
   -1
100
AcDbMText
 10
322.2766879999999
 20
14.50148366666667
 30
0
 40
2.5
 41
20.2083333333338
 71
    7
 72
    5
  1
part number
  7
normal#0.500000#0.900000
210
0
220
0
230
1
 50
0
 73
    1
 44
0.96
  0
CIRCLE
  5
2A5
100
AcDbEntity
  8
Aide PériPhérique
  6
ByLayer
 62
  256
370
   -1
100
AcDbCircle
 10
414.9999999999998
 20
222.7499999999999
 40
3
  0
LINE
  5
2A6
100
AcDbEntity
  8
Aide PériPhérique
  6
ByLayer
 62
  256
370
   -1
100
AcDbLine
 10
410.0000000000002
 20
148.5000000000001
 11
414.3301270189227
 21
146.0000000000002
  0
LINE
  5
2A7
100
AcDbEntity
  8
Aide PériPhérique
  6
ByLayer
 62
  256
370
   -1
100
AcDbLine
 10
410.0000000000002
 20
148.5000000000001
 11
414.3301270189222
 21
150.9999999999998
  0
LINE
  5
2A8
100
AcDbEntity
  8
Aide PériPhérique
  6
ByLayer
 62
  256
370
   -1
100
AcDbLine
 10
414.3301270189227
 20
146.0000000000002
 11
414.3301270189222
 21
150.9999999999998
  0
CIRCLE
  5
2A9
100
AcDbEntity
  8
Aide PériPhérique
  6
ByLayer
 62
  256
370
   -1
100
AcDbCircle
 10
415
 20
74.25
 40
3
  0
MTEXT
  5
2AA
100
AcDbEntity
  8
Aide PériPhérique
  6
ByLayer
 62
  256
370
   -1
100
AcDbMText
 10
415
 20
74.25
 30
0
 40
4
 41
2.666666666666667
 71
    5
 72
    5
  1
A
  7
iso
210
0
220
0
230
1
 50
6.283185307179586
 73
    2
 44
0.96
  0
MTEXT
  5
2AB
100
AcDbEntity
  8
Aide PériPhérique
  6
ByLayer
 62
  256
370
   -1
100
AcDbMText
 10
414.9999999999998
 20
222.7499999999999
 30
0
 40
4
 41
2.222222222222222
 71
    5
 72
    5
  1
B
  7
iso
210
0
220
0
230
1
 50
6.283185307179586
 73
    2
 44
0.96
  0
LINE
  5
2AC
100
AcDbEntity
  8
Cadre Extérieur
  6
CONTINUOUS
 62
    7
370
    0
100
AcDbLine
 10
20.00000000000002
 20
287
 11
410
 21
287
  0
LINE
  5
2AD
100
AcDbEntity
  8
Cadre Extérieur
  6
CONTINUOUS
 62
    7
370
    0
100
AcDbLine
 10
410
 20
287
 11
410
 21
10
  0
LINE
  5
2AE
100
AcDbEntity
  8
Aide PériPhérique
  6
ByLayer
 62
  256
370
   -1
100
AcDbLine
 10
420
 20
297
 11
2.57e-014
 21
297
  0
LINE
  5
2AF
100
AcDbEntity
  8
Aide PériPhérique
  6
ByLayer
 62
  256
370
   -1
100
AcDbLine
 10
125
 20
0
 11
125
 21
10
  0
LINE
  5
2B0
100
AcDbEntity
  8
Aide PériPhérique
  6
ByLayer
 62
  256
370
   -1
100
AcDbLine
 10
230
 20
2.84e-014
 11
230
 21
9.999999999999972
  0
LINE
  5
2B1
100
AcDbEntity
  8
Aide PériPhérique
  6
ByLayer
 62
  256
370
   -1
100
AcDbLine
 10
124.9999760000001
 20
9.999976000000061
 11
122.499976
 21
5.669848981077848
  0
LINE
  5
2B2
100
AcDbEntity
  8
Aide PériPhérique
  6
ByLayer
 62
  256
370
   -1
100
AcDbLine
 10
124.9999760000001
 20
9.999976000000061
 11
127.4999760000001
 21
5.669848981077848
  0
LINE
  5
2B3
100
AcDbEntity
  8
Aide PériPhérique
  6
ByLayer
 62
  256
370
   -1
100
AcDbLine
 10
122.499976
 20
5.669848981077848
 11
127.4999760000001
 21
5.669848981077848
  0
CIRCLE
  5
2B4
100
AcDbEntity
  8
Aide PériPhérique
  6
ByLayer
 62
  256
370
   -1
100
AcDbCircle
 10
177.4999999999999
 20
5
 40
3
  0
LINE
  5
2B5
100
AcDbEntity
  8
Aide PériPhérique
  6
ByLayer
 62
  256
370
   -1
100
AcDbLine
 10
229.9999760000001
 20
9.999976000000089
 11
227.4999760000001
 21
5.669848981077877
  0
LINE
  5
2B6
100
AcDbEntity
  8
Aide PériPhérique
  6
ByLayer
 62
  256
370
   -1
100
AcDbLine
 10
229.9999760000001
 20
9.999976000000089
 11
232.4999760000001
 21
5.669848981077877
  0
LINE
  5
2B7
100
AcDbEntity
  8
Aide PériPhérique
  6
ByLayer
 62
  256
370
   -1
100
AcDbLine
 10
227.4999760000001
 20
5.669848981077877
 11
232.4999760000001
 21
5.669848981077877
  0
CIRCLE
  5
2B8
100
AcDbEntity
  8
Aide PériPhérique
  6
ByLayer
 62
  256
370
   -1
100
AcDbCircle
 10
72.49999999999999
 20
5
 40
3
  0
MTEXT
  5
2B9
100
AcDbEntity
  8
Aide PériPhérique
  6
ByLayer
 62
  256
370
   -1
100
AcDbMText
 10
72.49999999999999
 20
5
 30
0
 40
4
 41
0.8888888888888888
 71
    5
 72
    5
  1
1
  7
iso
210
0
220
0
230
1
 50
0
 73
    2
 44
0.96
  0
MTEXT
  5
2BA
100
AcDbEntity
  8
Aide PériPhérique
  6
ByLayer
 62
  256
370
   -1
100
AcDbMText
 10
177.4999999999999
 20
5
 30
0
 40
4
 41
1.777777777777778
 71
    5
 72
    5
  1
2
  7
iso
210
0
220
0
230
1
 50
0
 73
    2
 44
0.96
  0
CIRCLE
  5
2BB
100
AcDbEntity
  8
Aide PériPhérique
  6
ByLayer
 62
  256
370
   -1
100
AcDbCircle
 10
278
 20
5.000000000000057
 40
3
  0
MTEXT
  5
2BC
100
AcDbEntity
  8
Aide PériPhérique
  6
ByLayer
 62
  256
370
   -1
100
AcDbMText
 10
278
 20
5.000000000000057
 30
0
 40
4
 41
1.777777777778026
 71
    5
 72
    5
  1
3
  7
iso
210
0
220
0
230
1
 50
0
 73
    2
 44
0.96
  0
LINE
  5
2BD
100
AcDbEntity
  8
Aide PériPhérique
  6
ByLayer
 62
  256
370
   -1
100
AcDbLine
 10
315
 20
9.999976000000061
 11
312.5
 21
5.669848981077877
  0
LINE
  5
2BE
100
AcDbEntity
  8
Aide PériPhérique
  6
ByLayer
 62
  256
370
   -1
100
AcDbLine
 10
315
 20
9.999976000000061
 11
317.5
 21
5.669848981077905
  0
LINE
  5
2BF
100
AcDbEntity
  8
Aide PériPhérique
  6
ByLayer
 62
  256
370
   -1
100
AcDbLine
 10
312.5
 20
5.669848981077877
 11
317.5
 21
5.669848981077905
  0
CIRCLE
  5
2C0
100
AcDbEntity
  8
Aide PériPhérique
  6
ByLayer
 62
  256
370
   -1
100
AcDbCircle
 10
363.0000239999999
 20
4.999999999999943
 40
3
  0
MTEXT
  5
2C1
100
AcDbEntity
  8
Aide PériPhérique
  6
ByLayer
 62
  256
370
   -1
100
AcDbMText
 10
363.0000239999999
 20
4.999999999999943
 30
0
 40
4
 41
2.222222222222222
 71
    5
 72
    5
  1
4
  7
iso
210
0
220
0
230
1
 50
0
 73
    2
 44
0.96
  0
LINE
  5
2C2
100
AcDbEntity
  8
Aide PériPhérique
  6
ByLayer
 62
  256
370
   -1
100
AcDbLine
 10
420
 20
0
 11
420
 21
297
  0
LINE
  5
2C3
100
AcDbEntity
  8
Aide PériPhérique
  6
ByLayer
 62
  256
370
   -1
100
AcDbLine
 10
3.55e-014
 20
0
 11
420
 21
0
  0
LINE
  5
2C4
100
AcDbEntity
  8
Aide PériPhérique
  6
ByLayer
 62
  256
370
   -1
100
AcDbLine
 10
124.9999999999999
 20
297.0000000000001
 11
125
 21
287
  0
LINE
  5
2C5
100
AcDbEntity
  8
Aide PériPhérique
  6
ByLayer
 62
  256
370
   -1
100
AcDbLine
 10
229.9999999999999
 20
297.0000000000001
 11
230.0000000000001
 21
287
  0
LINE
  5
2C6
100
AcDbEntity
  8
Aide PériPhérique
  6
ByLayer
 62
  256
370
   -1
100
AcDbLine
 10
124.999976
 20
287.0000239999999
 11
122.4999759999999
 21
291.3301510189223
  0
LINE
  5
2C7
100
AcDbEntity
  8
Aide PériPhérique
  6
ByLayer
 62
  256
370
   -1
100
AcDbLine
 10
124.999976
 20
287.0000239999999
 11
127.499976
 21
291.3301510189222
  0
LINE
  5
2C8
100
AcDbEntity
  8
Aide PériPhérique
  6
ByLayer
 62
  256
370
   -1
100
AcDbLine
 10
122.4999759999999
 20
291.3301510189223
 11
127.499976
 21
291.3301510189222
  0
CIRCLE
  5
2C9
100
AcDbEntity
  8
Aide PériPhérique
  6
ByLayer
 62
  256
370
   -1
100
AcDbCircle
 10
177.4999999999999
 20
292.0000000000001
 40
3
  0
LINE
  5
2CA
100
AcDbEntity
  8
Aide PériPhérique
  6
ByLayer
 62
  256
370
   -1
100
AcDbLine
 10
229.9999760000001
 20
287.0000239999999
 11
227.4999760000001
 21
291.3301510189222
  0
LINE
  5
2CB
100
AcDbEntity
  8
Aide PériPhérique
  6
ByLayer
 62
  256
370
   -1
100
AcDbLine
 10
229.9999760000001
 20
287.0000239999999
 11
232.4999759999999
 21
291.3301510189223
  0
LINE
  5
2CC
100
AcDbEntity
  8
Aide PériPhérique
  6
ByLayer
 62
  256
370
   -1
100
AcDbLine
 10
227.4999760000001
 20
291.3301510189222
 11
232.4999759999999
 21
291.3301510189223
  0
CIRCLE
  5
2CD
100
AcDbEntity
  8
Aide PériPhérique
  6
ByLayer
 62
  256
370
   -1
100
AcDbCircle
 10
72.49999999999997
 20
292
 40
3
  0
MTEXT
  5
2CE
100
AcDbEntity
  8
Aide PériPhérique
  6
ByLayer
 62
  256
370
   -1
100
AcDbMText
 10
72.49999999999997
 20
292
 30
0
 40
4
 41
0.8888888888888888
 71
    5
 72
    5
  1
1
  7
iso
210
0
220
0
230
1
 50
0
 73
    2
 44
0.96
  0
MTEXT
  5
2CF
100
AcDbEntity
  8
Aide PériPhérique
  6
ByLayer
 62
  256
370
   -1
100
AcDbMText
 10
177.4999999999999
 20
292.0000000000001
 30
0
 40
4
 41
1.777777777777778
 71
    5
 72
    5
  1
2
  7
iso
210
0
220
0
230
1
 50
0
 73
    2
 44
0.96
  0
CIRCLE
  5
2D0
100
AcDbEntity
  8
Aide PériPhérique
  6
ByLayer
 62
  256
370
   -1
100
AcDbCircle
 10
278
 20
292
 40
3
  0
MTEXT
  5
2D1
100
AcDbEntity
  8
Aide PériPhérique
  6
ByLayer
 62
  256
370
   -1
100
AcDbMText
 10
278
 20
292
 30
0
 40
4
 41
1.777777777778026
 71
    5
 72
    5
  1
3
  7
iso
210
0
220
0
230
1
 50
0
 73
    2
 44
0.96
  0
LINE
  5
2D2
100
AcDbEntity
  8
Aide PériPhérique
  6
ByLayer
 62
  256
370
   -1
100
AcDbLine
 10
314.9999999999999
 20
287.0000240000001
 11
312.4999999999999
 21
291.3301510189223
  0
LINE
  5
2D3
100
AcDbEntity
  8
Aide PériPhérique
  6
ByLayer
 62
  256
370
   -1
100
AcDbLine
 10
314.9999999999999
 20
287.0000240000001
 11
317.4999999999999
 21
291.3301510189223
  0
LINE
  5
2D4
100
AcDbEntity
  8
Aide PériPhérique
  6
ByLayer
 62
  256
370
   -1
100
AcDbLine
 10
312.4999999999999
 20
291.3301510189223
 11
317.4999999999999
 21
291.3301510189223
  0
CIRCLE
  5
2D5
100
AcDbEntity
  8
Aide PériPhérique
  6
ByLayer
 62
  256
370
   -1
100
AcDbCircle
 10
363.0000239999999
 20
292.0000000000003
 40
3
  0
MTEXT
  5
2D6
100
AcDbEntity
  8
Aide PériPhérique
  6
ByLayer
 62
  256
370
   -1
100
AcDbMText
 10
363.0000239999999
 20
292.0000000000003
 30
0
 40
4
 41
2.222222222222222
 71
    5
 72
    5
  1
4
  7
iso
210
0
220
0
230
1
 50
0
 73
    2
 44
0.96
  0
ENDBLK
  5
6D
330
6B
100
AcDbEntity
  8
0
100
AcDbBlockEnd
  0
BLOCK
  5
6F
330
6E
100
AcDbEntity
  8
0
100
AcDbBlockBegin
  2
a3-4
 70
    0
 10
0
 20
0
  3
a3-4
  1

  0
CIRCLE
  5
2D7
100
AcDbEntity
  8
Aide PériPhérique
  6
ByLayer
 62
  256
370
   -1
100
AcDbCircle
 10
15.00000000000002
 20
222.7500000000001
 40
3
  0
LINE
  5
2D8
100
AcDbEntity
  8
Aide PériPhérique
  6
ByLayer
 62
  256
370
   -1
100
AcDbLine
 10
19.99999999999989
 20
148.5
 11
15.66987298107769
 21
146
  0
LINE
  5
2D9
100
AcDbEntity
  8
Aide PériPhérique
  6
ByLayer
 62
  256
370
   -1
100
AcDbLine
 10
19.99999999999989
 20
148.5
 11
15.66987298107771
 21
151
  0
LINE
  5
2DA
100
AcDbEntity
  8
Aide PériPhérique
  6
ByLayer
 62
  256
370
   -1
100
AcDbLine
 10
15.66987298107769
 20
146
 11
15.66987298107771
 21
151
  0
CIRCLE
  5
2DB
100
AcDbEntity
  8
Aide PériPhérique
  6
ByLayer
 62
  256
370
   -1
100
AcDbCircle
 10
15
 20
74.25000000000011
 40
3
  0
MTEXT
  5
2DC
100
AcDbEntity
  8
Aide PériPhérique
  6
ByLayer
 62
  256
370
   -1
100
AcDbMText
 10
15
 20
74.25000000000011
 30
0
 40
4
 41
2.666666666666667
 71
    5
 72
    5
  1
A
  7
iso
210
0
220
0
230
1
 50
6.283185307179586
 73
    2
 44
0.96
  0
MTEXT
  5
2DD
100
AcDbEntity
  8
Aide PériPhérique
  6
ByLayer
 62
  256
370
   -1
100
AcDbMText
 10
15.00000000000002
 20
222.7500000000001
 30
0
 40
4
 41
2.222222222222222
 71
    5
 72
    5
  1
B
  7
iso
210
0
220
0
230
1
 50
6.283185307179586
 73
    2
 44
0.96
  0
LINE
  5
2DE
100
AcDbEntity
  8
Cadre Extérieur
  6
ByLayer
 62
  256
370
   -1
100
AcDbLine
 10
20
 20
287
 11
20
 21
10
  0
LINE
  5
2DF
100
AcDbEntity
  8
Aide PériPhérique
  6
ByLayer
 62
  256
370
   -1
100
AcDbLine
 10
1.820071870994866e-014
 20
297
 11
0
 21
0
  0
LINE
  5
2E0
100
AcDbEntity
  8
Cadre Extérieur
  6
ByLayer
 62
  256
370
   -1
100
AcDbLine
 10
20
 20
10
 11
410
 21
9.999999999999945
  0
LINE
  5
2E1
100
AcDbEntity
  8
Cadre Extérieur
  6
ByLayer
 62
  256
370
   -1
100
AcDbLine
 10
373.600021
 20
65.25009399999996
 11
373.600021
 21
58.87505199999991
  0
LINE
  5
2E2
100
AcDbEntity
  8
Cadre Extérieur
  6
ByLayer
 62
  256
370
   -1
100
AcDbLine
 10
397
 20
26.999987
 11
397
 21
14.25004199999935
  0
LINE
  5
2E3
100
AcDbEntity
  8
Cadre Extérieur
  6
ByLayer
 62
  256
370
   -1
100
AcDbLine
 10
365.8000340000001
 20
14.25010700000141
 11
365.8000340000001
 21
10.00009799999988
  0
LINE
  5
2E4
100
AcDbEntity
  8
Cadre Extérieur
  6
ByLayer
 62
  256
370
   -1
100
AcDbLine
 10
303.400024
 20
65.25009699999998
 11
303.400024
 21
27.00005900000017
  0
LINE
  5
2E5
100
AcDbEntity
  8
Cadre Extérieur
  6
ByLayer
 62
  256
370
   -1
100
AcDbLine
 10
287.8000179999999
 20
48.25009000000014
 11
287.8000179999999
 21
27.00013600000004
  0
LINE
  5
2E6
100
AcDbEntity
  8
Cadre Extérieur
  6
ByLayer
 62
  256
370
   -1
100
AcDbLine
 10
277.400024
 20
65.25009000000004
 11
277.400024
 21
10.00009399999885
  0
LINE
  5
2E7
100
AcDbEntity
  8
Cadre Extérieur
  6
ByLayer
 62
  256
370
   -1
100
AcDbLine
 10
321.6000059999999
 20
65.25013900000003
 11
321.6000059999999
 21
10.00009700000059
  0
LINE
  5
2E8
100
AcDbEntity
  8
Cadre Extérieur
  6
ByLayer
 62
  256
370
   -1
100
AcDbLine
 10
269.6000059999999
 20
48.25008199999981
 11
269.6000369999999
 21
10.0000989999999
  0
LINE
  5
2E9
100
AcDbEntity
  8
Cadre Extérieur
  6
ByLayer
 62
  256
370
   -1
100
AcDbLine
 10
256.6000059999999
 20
48.2501010000002
 11
256.6000059999999
 21
10.0000910000006
  0
LINE
  5
2EA
100
AcDbEntity
  8
Cadre Extérieur
  6
ByLayer
 62
  256
370
   -1
100
AcDbLine
 10
230.600006
 20
48.25011300000001
 11
230.600006
 21
10.00009299999965
  0
LINE
  5
2EB
100
AcDbEntity
  8
Cadre Extérieur
  6
ByLayer
 62
  256
370
   -1
100
AcDbLine
 10
222.800018
 20
31.25007499999977
 11
321.6000059999999
 21
31.25009200000036
  0
LINE
  5
2EC
100
AcDbEntity
  8
Cadre Extérieur
  6
ByLayer
 62
  256
370
   -1
100
AcDbLine
 10
222.800018
 20
35.50007999999994
 11
321.6000059999999
 21
35.50011500000002
  0
LINE
  5
2ED
100
AcDbEntity
  8
Cadre Extérieur
  6
ByLayer
 62
  256
370
   -1
100
AcDbLine
 10
222.800018
 20
39.75011599999998
 11
321.6000369999999
 21
39.75006699999997
  0
LINE
  5
2EE
100
AcDbEntity
  8
Cadre Extérieur
  6
ByLayer
 62
  256
370
   -1
100
AcDbLine
 10
222.800018
 20
44.00009699999989
 11
321.6000369999999
 21
44.00008599999977
  0
LINE
  5
2EF
100
AcDbEntity
  8
Cadre Extérieur
  6
ByLayer
 62
  256
370
   -1
100
AcDbLine
 10
222.800018
 20
22.75005499999975
 11
277.400024
 21
22.75006100000023
  0
LINE
  5
2F0
100
AcDbEntity
  8
Cadre Extérieur
  6
ByLayer
 62
  256
370
   -1
100
AcDbLine
 10
222.800018
 20
18.50005400000003
 11
277.400024
 21
18.50012200000026
  0
LINE
  5
2F1
100
AcDbEntity
  8
Cadre Extérieur
  6
ByLayer
 62
  256
370
   -1
100
AcDbLine
 10
321.6000059999999
 20
58.87511999999988
 11
410
 21
58.87504000000014
  0
LINE
  5
2F2
100
AcDbEntity
  8
Cadre Extérieur
  6
ByLayer
 62
  256
370
   -1
100
AcDbLine
 10
222.800018
 20
14.25008299999985
 11
410
 21
14.25008999999916
  0
LINE
  5
2F3
100
AcDbEntity
  8
Cadre Extérieur
  6
ByLayer
 62
  256
370
   -1
100
AcDbLine
 10
222.800018
 20
48.25008599999984
 11
410.000061
 21
48.25010100000019
  0
LINE
  5
2F4
100
AcDbEntity
  8
Cadre Extérieur
  6
ByLayer
 62
  256
370
   -1
100
AcDbLine
 10
222.800018
 20
27.00010700000013
 11
410.000061
 21
26.99999300000035
  0
LINE
  5
2F5
100
AcDbEntity
  8
Cadre Extérieur
  6
ByLayer
 62
  256
370
   -1
100
AcDbLine
 10
222.800018
 20
65.25008599999994
 11
410
 21
65.25016599999992
  0
LINE
  5
2F6
100
AcDbEntity
  8
Cadre Extérieur
  6
ByLayer
 62
  256
370
   -1
100
AcDbLine
 10
410.000061
 20
65.25018100000015
 11
410
 21
9.999999999999945
  0
LINE
  5
2F7
100
AcDbEntity
  8
Cadre Extérieur
  6
ByLayer
 62
  256
370
   -1
100
AcDbLine
 10
410
 20
9.999999999999945
 11
222.800018
 21
10.00010099999966
  0
LINE
  5
2F8
100
AcDbEntity
  8
Cadre Extérieur
  6
ByLayer
 62
  256
370
   -1
100
AcDbLine
 10
222.800018
 20
65.25008599999994
 11
222.800018
 21
10.00010099999966
  0
LINE
  5
2F9
100
AcDbEntity
  8
Symbol ISO
  6
ByLayer
 62
  256
370
   -1
100
AcDbLine
 10
280.2711420000001
 20
57.24287599999997
 11
300.2711420000001
 21
57.24287599999987
  0
CIRCLE
  5
2FA
100
AcDbEntity
  8
Symbol ISO
  6
ByLayer
 62
  256
370
   -1
100
AcDbCircle
 10
295.4711420000001
 20
57.24287599999973
 40
2.8
  0
CIRCLE
  5
2FB
100
AcDbEntity
  8
Symbol ISO
  6
ByLayer
 62
  256
370
   -1
100
AcDbCircle
 10
295.4711420000001
 20
57.24287599999973
 40
1.6
  0
LINE
  5
2FC
100
AcDbEntity
  8
Symbol ISO
  6
ByLayer
 62
  256
370
   -1
100
AcDbLine
 10
282.6711419999999
 20
58.84287599999995
 11
282.6711419999999
 21
55.64287600000003
  0
LINE
  5
2FD
100
AcDbEntity
  8
Symbol ISO
  6
ByLayer
 62
  256
370
   -1
100
AcDbLine
 10
282.6711419999999
 20
55.64287600000003
 11
289.071142
 21
54.44287599999993
  0
LINE
  5
2FE
100
AcDbEntity
  8
Symbol ISO
  6
ByLayer
 62
  256
370
   -1
100
AcDbLine
 10
289.071142
 20
60.04287600000005
 11
289.071142
 21
54.44287599999993
  0
LINE
  5
2FF
100
AcDbEntity
  8
Symbol ISO
  6
ByLayer
 62
  256
370
   -1
100
AcDbLine
 10
282.6711419999999
 20
58.84287599999995
 11
289.071142
 21
60.04287600000005
  0
LINE
  5
300
100
AcDbEntity
  8
Symbol ISO
  6
ByLayer
 62
  256
370
   -1
100
AcDbLine
 10
295.4711420000001
 20
52.44287599999988
 11
295.4711420000001
 21
62.04287600000004
  0
MTEXT
  5
301
100
AcDbEntity
  8
text
  6
ByLayer
 62
  256
370
   -1
100
AcDbMText
 10
322.726257
 20
60.81260492786927
 30
0
 40
2.5
 41
18.88984131895054
 71
    7
 72
    5
  1
scale  1 : 1
  7
normal#0.500000#1.500000
210
0
220
0
230
1
 50
0
 73
    1
 44
0.96
  0
MTEXT
  5
302
100
AcDbEntity
  8
text
  6
ByLayer
 62
  256
370
   -1
100
AcDbMText
 10
374.726242
 20
60.53487722222226
 30
0
 40
2.5
 41
9.722224238102887
 71
    7
 72
    5
  1
(mass)
  7
normal#0.500000#1.500000
210
0
220
0
230
1
 50
0
 73
    1
 44
0.96
  0
MTEXT
  5
303
100
AcDbEntity
  8
text
  6
ByLayer
 62
  256
370
   -1
100
AcDbMText
 10
322.7620850000001
 20
54.51309666666654
 30
0
 40
2.5
 41
38.68055628571858
 71
    7
 72
    5
  1
(material, specification)
  7
normal#0.500000#1.500000
210
0
220
0
230
1
 50
0
 73
    1
 44
0.96
  0
MTEXT
  5
304
100
AcDbEntity
  8
text
  6
ByLayer
 62
  256
370
   -1
100
AcDbMText
 10
290.6053770000001
 20
44.87508999999979
 30
0
 40
2.5
 41
6.6666666666669
 71
    7
 72
    5
  1
date
  7
normal#0.500000#1.200000
210
0
220
0
230
1
 50
0
 73
    1
 44
0.96
  0
MTEXT
  5
305
100
AcDbEntity
  8
text
  6
ByLayer
 62
  256
370
   -1
100
AcDbMText
 10
308.1733400000001
 20
44.87508199999996
 30
0
 40
2.5
 41
7.500000000000348
 71
    7
 72
    5
  1
name
  7
normal#0.500000#1.200000
210
0
220
0
230
1
 50
0
 73
    1
 44
0.96
  0
MTEXT
  5
306
100
AcDbEntity
  8
text
  6
ByLayer
 62
  256
370
   -1
100
AcDbMText
 10
277.713043
 20
39.79171466666669
 30
0
 40
2.5
 41
8.611112396829338
 71
    7
 72
    5
  1
desig.
  7
normal#0.500000#1.200000
210
0
220
0
230
1
 50
0
 73
    1
 44
0.96
  0
MTEXT
  5
307
100
AcDbEntity
  8
text
  6
ByLayer
 62
  256
370
   -1
100
AcDbMText
 10
277.898956
 20
32.12510899999974
 30
0
 40
2.5
 41
7.500000000000234
 71
    7
 72
    5
  1
auth.
  7
normal#0.500000#1.200000
210
0
220
0
230
1
 50
0
 73
    1
 44
0.96
  0
MTEXT
  5
308
100
AcDbEntity
  8
text
  6
ByLayer
 62
  256
370
   -1
100
AcDbMText
 10
223.114746
 20
10.87509599999959
 30
0
 40
2.5
 41
3.888888888888967
 71
    7
 72
    5
  1
loc
  7
normal#0.500000#1.200000
210
0
220
0
230
1
 50
0
 73
    1
 44
0.96
  0
MTEXT
  5
309
100
AcDbEntity
  8
text
  6
ByLayer
 62
  256
370
   -1
100
AcDbMText
 10
236.185455
 20
10.0417616666664
 30
0
 40
2.5
 41
10.55555555555614
 71
    7
 72
    5
  1
change
  7
normal#0.500000#1.200000
210
0
220
0
230
1
 50
0
 73
    1
 44
0.96
  0
MTEXT
  5
30A
100
AcDbEntity
  8
text
  6
ByLayer
 62
  256
370
   -1
100
AcDbMText
 10
258.411652
 20
10.87513200000014
 30
0
 40
2.5
 41
6.6666666666669
 71
    7
 72
    5
  1
date
  7
normal#0.500000#1.200000
210
0
220
0
230
1
 50
0
 73
    1
 44
0.96
  0
MTEXT
  5
30B
100
AcDbEntity
  8
text
  6
ByLayer
 62
  256
370
   -1
100
AcDbMText
 10
269.6750489999999
 20
10.87506499999954
 30
0
 40
2.5
 41
7.500000000000348
 71
    7
 72
    5
  1
name
  7
normal#0.200000#1.200000
210
0
220
0
230
1
 50
0
 73
    1
 44
0.96
  0
MTEXT
  5
30C
100
AcDbEntity
  8
text
  6
ByLayer
 62
  256
370
   -1
100
AcDbMText
 10
278.6523440000001
 20
10.04172966666624
 30
0
 40
2.5
 41
11.38888888888901
 71
    7
 72
    5
  1
project
  7
normal#0.500000#1.200000
210
0
220
0
230
1
 50
0
 73
    1
 44
0.96
  0
MTEXT
  5
30D
100
AcDbEntity
  8
text
  6
ByLayer
 62
  256
370
   -1
100
AcDbMText
 10
323.2767329999999
 20
10.04178766666714
 30
0
 40
2.5
 41
13.33333461905145
 71
    7
 72
    5
  1
replaces
  7
normal#0.500000#1.500000
210
0
220
0
230
1
 50
0
 73
    1
 44
0.96
  0
MTEXT
  5
30E
100
AcDbEntity
  8
text
  6
ByLayer
 62
  256
370
   -1
100
AcDbMText
 10
367.4767300000001
 20
10.04186066666497
 30
0
 40
2.5
 41
19.09722222222246
 71
    7
 72
    5
  1
replaced by
  7
normal#0.500000#1.500000
210
0
220
0
230
1
 50
0
 73
    1
 44
0.96
  0
MTEXT
  5
30F
100
AcDbEntity
  8
text
  6
ByLayer
 62
  256
370
   -1
100
AcDbMText
 10
399.839905
 20
15.23756994229673
 30
0
 40
2
 41
6.889650832938209
 71
    7
 72
    5
  1
sheet
  7
normal#0.500000#0.900000
210
0
220
0
230
1
 50
0
 73
    1
 44
0.96
  0
MTEXT
  5
310
100
AcDbEntity
  8
text
  6
ByLayer
 62
  256
370
   -1
100
AcDbMText
 10
322.496576
 20
27.91470066666627
 30
0
 40
2.5
 41
16.59722222222269
 71
    7
 72
    5
  1
part name
  7
normal#0.500000#0.900000
210
0
220
0
230
1
 50
0
 73
    1
 44
0.96
  0
MTEXT
  5
311
100
AcDbEntity
  8
text
  6
ByLayer
 62
  256
370
   -1
100
AcDbMText
 10
322.2766879999999
 20
14.5014836666667
 30
0
 40
2.5
 41
20.2083333333338
 71
    7
 72
    5
  1
part number
  7
normal#0.500000#0.900000
210
0
220
0
230
1
 50
0
 73
    1
 44
0.96
  0
CIRCLE
  5
312
100
AcDbEntity
  8
Aide PériPhérique
  6
ByLayer
 62
  256
370
   -1
100
AcDbCircle
 10
414.9999999999998
 20
222.7499999999999
 40
3
  0
LINE
  5
313
100
AcDbEntity
  8
Aide PériPhérique
  6
ByLayer
 62
  256
370
   -1
100
AcDbLine
 10
410.0000000000002
 20
148.5
 11
414.3301270189227
 21
146.0000000000001
  0
LINE
  5
314
100
AcDbEntity
  8
Aide PériPhérique
  6
ByLayer
 62
  256
370
   -1
100
AcDbLine
 10
410.0000000000002
 20
148.5
 11
414.3301270189222
 21
150.9999999999998
  0
LINE
  5
315
100
AcDbEntity
  8
Aide PériPhérique
  6
ByLayer
 62
  256
370
   -1
100
AcDbLine
 10
414.3301270189227
 20
146.0000000000001
 11
414.3301270189222
 21
150.9999999999998
  0
CIRCLE
  5
316
100
AcDbEntity
  8
Aide PériPhérique
  6
ByLayer
 62
  256
370
   -1
100
AcDbCircle
 10
415
 20
74.25000000000007
 40
3
  0
MTEXT
  5
317
100
AcDbEntity
  8
Aide PériPhérique
  6
ByLayer
 62
  256
370
   -1
100
AcDbMText
 10
415
 20
74.25000000000007
 30
0
 40
4
 41
2.666666666666667
 71
    5
 72
    5
  1
A
  7
iso
210
0
220
0
230
1
 50
6.283185307179586
 73
    2
 44
0.96
  0
MTEXT
  5
318
100
AcDbEntity
  8
Aide PériPhérique
  6
ByLayer
 62
  256
370
   -1
100
AcDbMText
 10
414.9999999999998
 20
222.7499999999999
 30
0
 40
4
 41
2.222222222222222
 71
    5
 72
    5
  1
B
  7
iso
210
0
220
0
230
1
 50
6.283185307179586
 73
    2
 44
0.96
  0
LINE
  5
319
100
AcDbEntity
  8
Cadre Extérieur
  6
ByLayer
 62
  256
370
   -1
100
AcDbLine
 10
20
 20
287
 11
410
 21
286.9999999999999
  0
LINE
  5
31A
100
AcDbEntity
  8
Cadre Extérieur
  6
ByLayer
 62
  256
370
   -1
100
AcDbLine
 10
410
 20
286.9999999999999
 11
410
 21
9.999999999999945
  0
LINE
  5
31B
100
AcDbEntity
  8
Aide PériPhérique
  6
ByLayer
 62
  256
370
   -1
100
AcDbLine
 10
420
 20
297
 11
1.820071870994866e-014
 21
297
  0
LINE
  5
31C
100
AcDbEntity
  8
Aide PériPhérique
  6
ByLayer
 62
  256
370
   -1
100
AcDbLine
 10
125
 20
0
 11
125
 21
9.999999999999902
  0
LINE
  5
31D
100
AcDbEntity
  8
Aide PériPhérique
  6
ByLayer
 62
  256
370
   -1
100
AcDbLine
 10
230
 20
0
 11
230
 21
10.00000000000048
  0
LINE
  5
31E
100
AcDbEntity
  8
Aide PériPhérique
  6
ByLayer
 62
  256
370
   -1
100
AcDbLine
 10
124.9999760000001
 20
9.999976000000135
 11
122.499976
 21
5.669848981077905
  0
LINE
  5
31F
100
AcDbEntity
  8
Aide PériPhérique
  6
ByLayer
 62
  256
370
   -1
100
AcDbLine
 10
124.9999760000001
 20
9.999976000000135
 11
127.4999760000001
 21
5.669848981077732
  0
LINE
  5
320
100
AcDbEntity
  8
Aide PériPhérique
  6
ByLayer
 62
  256
370
   -1
100
AcDbLine
 10
122.499976
 20
5.669848981077905
 11
127.4999760000001
 21
5.669848981077732
  0
CIRCLE
  5
321
100
AcDbEntity
  8
Aide PériPhérique
  6
ByLayer
 62
  256
370
   -1
100
AcDbCircle
 10
177.4999999999999
 20
4.999999999999019
 40
3
  0
LINE
  5
322
100
AcDbEntity
  8
Aide PériPhérique
  6
ByLayer
 62
  256
370
   -1
100
AcDbLine
 10
229.9999760000001
 20
9.999976000000681
 11
227.4999760000001
 21
5.66984898107723
  0
LINE
  5
323
100
AcDbEntity
  8
Aide PériPhérique
  6
ByLayer
 62
  256
370
   -1
100
AcDbLine
 10
229.9999760000001
 20
9.999976000000681
 11
232.4999760000001
 21
5.669848981077044
  0
LINE
  5
324
100
AcDbEntity
  8
Aide PériPhérique
  6
ByLayer
 62
  256
370
   -1
100
AcDbLine
 10
227.4999760000001
 20
5.66984898107723
 11
232.4999760000001
 21
5.669848981077044
  0
CIRCLE
  5
325
100
AcDbEntity
  8
Aide PériPhérique
  6
ByLayer
 62
  256
370
   -1
100
AcDbCircle
 10
72.49999999999999
 20
4.999999999999932
 40
3
  0
MTEXT
  5
326
100
AcDbEntity
  8
Aide PériPhérique
  6
ByLayer
 62
  256
370
   -1
100
AcDbMText
 10
72.49999999999999
 20
4.999999999999932
 30
0
 40
4
 41
0.8888888888888888
 71
    5
 72
    5
  1
1
  7
iso
210
0
220
0
230
1
 50
0
 73
    2
 44
0.96
  0
MTEXT
  5
327
100
AcDbEntity
  8
Aide PériPhérique
  6
ByLayer
 62
  256
370
   -1
100
AcDbMText
 10
177.4999999999999
 20
4.999999999999019
 30
0
 40
4
 41
1.777777777777778
 71
    5
 72
    5
  1
2
  7
iso
210
0
220
0
230
1
 50
0
 73
    2
 44
0.96
  0
CIRCLE
  5
328
100
AcDbEntity
  8
Aide PériPhérique
  6
ByLayer
 62
  256
370
   -1
100
AcDbCircle
 10
278
 20
5.000000000000104
 40
3
  0
MTEXT
  5
329
100
AcDbEntity
  8
Aide PériPhérique
  6
ByLayer
 62
  256
370
   -1
100
AcDbMText
 10
278
 20
5.000000000000104
 30
0
 40
4
 41
1.777777777778026
 71
    5
 72
    5
  1
3
  7
iso
210
0
220
0
230
1
 50
0
 73
    2
 44
0.96
  0
LINE
  5
32A
100
AcDbEntity
  8
Aide PériPhérique
  6
ByLayer
 62
  256
370
   -1
100
AcDbLine
 10
315
 20
9.999975999999624
 11
312.5
 21
5.66984898107766
  0
LINE
  5
32B
100
AcDbEntity
  8
Aide PériPhérique
  6
ByLayer
 62
  256
370
   -1
100
AcDbLine
 10
315
 20
9.999975999999624
 11
317.5
 21
5.669848981077923
  0
LINE
  5
32C
100
AcDbEntity
  8
Aide PériPhérique
  6
ByLayer
 62
  256
370
   -1
100
AcDbLine
 10
312.5
 20
5.66984898107766
 11
317.5
 21
5.669848981077923
  0
CIRCLE
  5
32D
100
AcDbEntity
  8
Aide PériPhérique
  6
ByLayer
 62
  256
370
   -1
100
AcDbCircle
 10
363.0000239999999
 20
4.999999999999614
 40
3
  0
MTEXT
  5
32E
100
AcDbEntity
  8
Aide PériPhérique
  6
ByLayer
 62
  256
370
   -1
100
AcDbMText
 10
363.0000239999999
 20
4.999999999999614
 30
0
 40
4
 41
2.222222222222222
 71
    5
 72
    5
  1
4
  7
iso
210
0
220
0
230
1
 50
0
 73
    2
 44
0.96
  0
LINE
  5
32F
100
AcDbEntity
  8
Aide PériPhérique
  6
ByLayer
 62
  256
370
   -1
100
AcDbLine
 10
420
 20
0
 11
420
 21
297
  0
LINE
  5
330
100
AcDbEntity
  8
Aide PériPhérique
  6
ByLayer
 62
  256
370
   -1
100
AcDbLine
 10
3.549938121238938e-014
 20
0
 11
420
 21
0
  0
LINE
  5
331
100
AcDbEntity
  8
Aide PériPhérique
  6
ByLayer
 62
  256
370
   -1
100
AcDbLine
 10
124.9999999999999
 20
297.0000000000002
 11
125
 21
287
  0
LINE
  5
332
100
AcDbEntity
  8
Aide PériPhérique
  6
ByLayer
 62
  256
370
   -1
100
AcDbLine
 10
229.9999999999999
 20
297.0000000000002
 11
230
 21
287
  0
LINE
  5
333
100
AcDbEntity
  8
Aide PériPhérique
  6
ByLayer
 62
  256
370
   -1
100
AcDbLine
 10
124.999976
 20
287.0000239999999
 11
122.4999759999999
 21
291.3301510189223
  0
LINE
  5
334
100
AcDbEntity
  8
Aide PériPhérique
  6
ByLayer
 62
  256
370
   -1
100
AcDbLine
 10
124.999976
 20
287.0000239999999
 11
127.4999760000001
 21
291.3301510189222
  0
LINE
  5
335
100
AcDbEntity
  8
Aide PériPhérique
  6
ByLayer
 62
  256
370
   -1
100
AcDbLine
 10
122.4999759999999
 20
291.3301510189223
 11
127.4999760000001
 21
291.3301510189222
  0
CIRCLE
  5
336
100
AcDbEntity
  8
Aide PériPhérique
  6
ByLayer
 62
  256
370
   -1
100
AcDbCircle
 10
177.4999999999999
 20
292.0000000000001
 40
3
  0
LINE
  5
337
100
AcDbEntity
  8
Aide PériPhérique
  6
ByLayer
 62
  256
370
   -1
100
AcDbLine
 10
229.9999760000001
 20
287.000024
 11
227.4999760000001
 21
291.3301510189222
  0
LINE
  5
338
100
AcDbEntity
  8
Aide PériPhérique
  6
ByLayer
 62
  256
370
   -1
100
AcDbLine
 10
229.9999760000001
 20
287.000024
 11
232.4999759999999
 21
291.3301510189223
  0
LINE
  5
339
100
AcDbEntity
  8
Aide PériPhérique
  6
ByLayer
 62
  256
370
   -1
100
AcDbLine
 10
227.4999760000001
 20
291.3301510189222
 11
232.4999759999999
 21
291.3301510189223
  0
CIRCLE
  5
33A
100
AcDbEntity
  8
Aide PériPhérique
  6
ByLayer
 62
  256
370
   -1
100
AcDbCircle
 10
72.49999999999997
 20
292
 40
3
  0
MTEXT
  5
33B
100
AcDbEntity
  8
Aide PériPhérique
  6
ByLayer
 62
  256
370
   -1
100
AcDbMText
 10
72.49999999999997
 20
292
 30
0
 40
4
 41
0.8888888888888888
 71
    5
 72
    5
  1
1
  7
iso
210
0
220
0
230
1
 50
0
 73
    2
 44
0.96
  0
MTEXT
  5
33C
100
AcDbEntity
  8
Aide PériPhérique
  6
ByLayer
 62
  256
370
   -1
100
AcDbMText
 10
177.4999999999999
 20
292.0000000000001
 30
0
 40
4
 41
1.777777777777778
 71
    5
 72
    5
  1
2
  7
iso
210
0
220
0
230
1
 50
0
 73
    2
 44
0.96
  0
CIRCLE
  5
33D
100
AcDbEntity
  8
Aide PériPhérique
  6
ByLayer
 62
  256
370
   -1
100
AcDbCircle
 10
278
 20
292
 40
3
  0
MTEXT
  5
33E
100
AcDbEntity
  8
Aide PériPhérique
  6
ByLayer
 62
  256
370
   -1
100
AcDbMText
 10
278
 20
292
 30
0
 40
4
 41
1.777777777778026
 71
    5
 72
    5
  1
3
  7
iso
210
0
220
0
230
1
 50
0
 73
    2
 44
0.96
  0
LINE
  5
33F
100
AcDbEntity
  8
Aide PériPhérique
  6
ByLayer
 62
  256
370
   -1
100
AcDbLine
 10
315
 20
287.0000240000001
 11
312.4999999999999
 21
291.3301510189223
  0
LINE
  5
340
100
AcDbEntity
  8
Aide PériPhérique
  6
ByLayer
 62
  256
370
   -1
100
AcDbLine
 10
315
 20
287.0000240000001
 11
317.4999999999999
 21
291.3301510189222
  0
LINE
  5
341
100
AcDbEntity
  8
Aide PériPhérique
  6
ByLayer
 62
  256
370
   -1
100
AcDbLine
 10
312.4999999999999
 20
291.3301510189223
 11
317.4999999999999
 21
291.3301510189222
  0
CIRCLE
  5
342
100
AcDbEntity
  8
Aide PériPhérique
  6
ByLayer
 62
  256
370
   -1
100
AcDbCircle
 10
363.0000239999999
 20
292.0000000000003
 40
3
  0
MTEXT
  5
343
100
AcDbEntity
  8
Aide PériPhérique
  6
ByLayer
 62
  256
370
   -1
100
AcDbMText
 10
363.0000239999999
 20
292.0000000000003
 30
0
 40
4
 41
2.222222222222222
 71
    5
 72
    5
  1
4
  7
iso
210
0
220
0
230
1
 50
0
 73
    2
 44
0.96
  0
MTEXT
  5
344
100
AcDbEntity
  8
text
  6
ByLayer
 62
  256
370
   -1
100
AcDbMText
 10
223.114746
 20
15.12517929166619
 30
0
 40
2.5
 41
3.055555555555555
 71
    7
 72
    5
  1
A1
  7
normal#0.500000#1.200000
210
0
220
0
230
1
 50
0
 73
    1
 44
0.96
  0
MTEXT
  5
345
100
AcDbEntity
  8
text
  6
ByLayer
 62
  256
370
   -1
100
AcDbMText
 10
232.2019345855434
 20
14.2918448093763
 30
0
 40
2.5
 41
20.76389017460735
 71
    7
 72
    5
  1
initial design
  7
normal#0.500000#1.200000
210
0
220
0
230
1
 50
0
 73
    1
 44
0.96
  0
MTEXT
  5
346
100
AcDbEntity
  8
text
  6
ByLayer
 62
  256
370
   -1
100
AcDbMText
 10
256.6190678060468
 20
15.12521522463579
 30
0
 40
2.5
 41
13.05555555555556
 71
    7
 72
    5
  1
01/01/01
  7
iso8859-11
210
0
220
0
230
1
 50
0
 73
    1
 44
0.96
  0
MTEXT
  5
347
100
AcDbEntity
  8
text
  6
ByLayer
 62
  256
370
   -1
100
AcDbMText
 10
270.6709291036141
 20
15.12514832890515
 30
0
 40
2.5
 41
5.555555555555865
 71
    7
 72
    5
  1
DDil
  7
normal#0.200000#1.200000
210
0
220
0
230
1
 50
0
 73
    1
 44
0.96
  0
MTEXT
  5
348
100
AcDbEntity
  8
text
  6
ByLayer
 62
  256
370
   -1
100
AcDbMText
 10
288.1130369999998
 20
40.62504166667172
 30
0
 40
2.5
 41
14.44444444444444
 71
    7
 72
    5
  1
07/01/04
  7
normal#0.500000#1.200000
210
0
220
0
230
1
 50
0
 73
    1
 44
0.96
  0
MTEXT
  5
349
100
AcDbEntity
  8
text
  6
ByLayer
 62
  256
370
   -1
100
AcDbMText
 10
288.2989499999999
 20
36.3751386666716
 30
0
 40
2.5
 41
4.722222222222339
 71
    7
 72
    5
  1
tbd
  7
normal#0.500000#1.200000
210
0
220
0
230
1
 50
0
 73
    1
 44
0.96
  0
MTEXT
  5
34A
100
AcDbEntity
  8
text
  6
ByLayer
 62
  256
370
   -1
100
AcDbMText
 10
288.2989499999999
 20
32.12510266667161
 30
0
 40
2.5
 41
4.722222222222339
 71
    7
 72
    5
  1
tbd
  7
normal#0.500000#1.200000
210
0
220
0
230
1
 50
0
 73
    1
 44
0.96
  0
MTEXT
  5
34B
100
AcDbEntity
  8
text
  6
ByLayer
 62
  256
370
   -1
100
AcDbMText
 10
303.713043
 20
40.62503216667014
 30
0
 40
2.5
 41
3.055555555555672
 71
    7
 72
    5
  1
dil
  7
normal#0.500000#1.200000
210
0
220
0
230
1
 50
0
 73
    1
 44
0.96
  0
MTEXT
  5
34C
100
AcDbEntity
  8
text
  6
ByLayer
 62
  256
370
   -1
100
AcDbMText
 10
303.898956
 20
36.37512916667013
 30
0
 40
2.5
 41
3.055555555555672
 71
    7
 72
    5
  1
dil
  7
normal#0.500000#1.200000
210
0
220
0
230
1
 50
0
 73
    1
 44
0.96
  0
MTEXT
  5
34D
100
AcDbEntity
  8
text
  6
ByLayer
 62
  256
370
   -1
100
AcDbMText
 10
303.898956
 20
32.12509316667014
 30
0
 40
2.5
 41
3.055555555555672
 71
    7
 72
    5
  1
dil
  7
normal#0.500000#1.200000
210
0
220
0
230
1
 50
0
 73
    1
 44
0.96
  0
MTEXT
  5
34E
100
AcDbEntity
  8
text
  6
ByLayer
 62
  256
370
   -1
100
AcDbMText
 10
364.9090859750838
 20
38.6401480202294
 30
0
 40
4
 41
13.66819055476531
 71
    5
 72
    5
  1
title\Psub t
  7
iso
210
0
220
0
230
1
 50
0
 73
    2
 44
0.96
  0
MTEXT
  5
34F
100
AcDbEntity
  8
text
  6
ByLayer
 62
  256
370
   -1
100
AcDbMText
 10
368.494254348095
 20
20.51513013445166
 30
0
 40
8
 41
38.22222222222321
 71
    5
 72
    5
  1
DD00NN
  7
iso
210
0
220
0
230
1
 50
0
 73
    2
 44
0.96
  0
MTEXT
  5
350
100
AcDbEntity
  8
text
  6
ByLayer
 62
  256
370
   -1
100
AcDbMText
 10
293.7897215674873
 20
10.04173023270097
 30
0
 40
2.5
 41
11.38888888888901
 71
    7
 72
    5
  1
project
  7
normal#0.500000#1.200000
210
0
220
0
230
1
 50
0
 73
    1
 44
0.96
  0
MTEXT
  5
351
100
AcDbEntity
  8
text
  6
ByLayer
 62
  256
370
   -1
100
AcDbMText
 10
403.1508819538676
 20
21.71018625878866
 30
0
 40
4
 41
6.222222222222221
 71
    5
 72
    5
  1
1/1
  7
iso
210
0
220
0
230
1
 50
0
 73
    2
 44
0.96
  0
MTEXT
  5
352
100
AcDbEntity
  8
text
  6
ByLayer
 62
  256
370
   -1
100
AcDbMText
 10
277.898956
 20
36.37514499999961
 30
0
 40
2.5
 41
8.333333333333567
 71
    7
 72
    5
  1
check
  7
normal#0.500000#1.200000
210
0
220
0
230
1
 50
0
 73
    1
 44
0.96
  0
ENDBLK
  5
70
330
6E
100
AcDbEntity
  8
0
100
AcDbBlockEnd
  0
BLOCK
  5
72
330
71
100
AcDbEntity
  8
0
100
AcDbBlockBegin
  2
a3-5
 70
    0
 10
0
 20
0
  3
a3-5
  1

  0
HATCH
  5
353
100
AcDbEntity
  8
6_hatch
  6
ByLayer
 62
  256
370
   -1
100
AcDbHatch
 10
0
 20
0
 30
0
210
0
220
0
230
1
  2
ansi31
 70
    0
 71
    0
 91
    1
 92
    0
 93
    3
 72
    1
 10
124.999976
 20
287.0000239999999
 11
122.4999759999999
 21
291.3301510189223
 72
    1
 10
122.4999759999999
 20
291.3301510189223
 11
127.499976
 21
291.3301510189222
 72
    1
 10
127.499976
 20
291.3301510189222
 11
124.999976
 21
287.0000239999999
 97
    0
 75
    0
 76
    1
 52
4.71238898038469
 41
0.5
 77
    0
 78
    0
 98
    0
  0
HATCH
  5
354
100
AcDbEntity
  8
6_hatch
  6
ByLayer
 62
  256
370
   -1
100
AcDbHatch
 10
0
 20
0
 30
0
210
0
220
0
230
1
  2
ansi31
 70
    0
 71
    0
 91
    1
 92
    0
 93
    3
 72
    1
 10
229.9999760000001
 20
287.0000239999999
 11
227.4999760000001
 21
291.3301510189222
 72
    1
 10
227.4999760000001
 20
291.3301510189222
 11
232.4999759999999
 21
291.3301510189223
 72
    1
 10
232.4999759999999
 20
291.3301510189223
 11
229.9999760000001
 21
287.0000239999999
 97
    0
 75
    0
 76
    1
 52
4.71238898038469
 41
0.5
 77
    0
 78
    0
 98
    0
  0
HATCH
  5
355
100
AcDbEntity
  8
6_hatch
  6
ByLayer
 62
  256
370
   -1
100
AcDbHatch
 10
0
 20
0
 30
0
210
0
220
0
230
1
  2
ansi31
 70
    0
 71
    0
 91
    1
 92
    0
 93
    3
 72
    1
 10
314.9999999999999
 20
287.0000240000001
 11
312.4999999999999
 21
291.3301510189223
 72
    1
 10
312.4999999999999
 20
291.3301510189223
 11
317.4999999999999
 21
291.3301510189223
 72
    1
 10
317.4999999999999
 20
291.3301510189223
 11
314.9999999999999
 21
287.0000240000001
 97
    0
 75
    0
 76
    1
 52
4.71238898038469
 41
0.5
 77
    0
 78
    0
 98
    0
  0
HATCH
  5
356
100
AcDbEntity
  8
6_hatch
  6
ByLayer
 62
  256
370
   -1
100
AcDbHatch
 10
0
 20
0
 30
0
210
0
220
0
230
1
  2
ansi31
 70
    0
 71
    0
 91
    1
 92
    0
 93
    3
 72
    1
 10
315
 20
9.999976000000061
 11
312.5
 21
5.669848981077877
 72
    1
 10
312.5
 20
5.669848981077877
 11
317.5
 21
5.669848981077905
 72
    1
 10
317.5
 20
5.669848981077905
 11
315
 21
9.999976000000061
 97
    0
 75
    0
 76
    1
 52
4.71238898038469
 41
0.5
 77
    0
 78
    0
 98
    0
  0
HATCH
  5
357
100
AcDbEntity
  8
6_hatch
  6
ByLayer
 62
  256
370
   -1
100
AcDbHatch
 10
0
 20
0
 30
0
210
0
220
0
230
1
  2
ansi31
 70
    0
 71
    0
 91
    1
 92
    0
 93
    3
 72
    1
 10
229.9999760000001
 20
9.999976000000089
 11
227.4999760000001
 21
5.669848981077877
 72
    1
 10
227.4999760000001
 20
5.669848981077877
 11
232.4999760000001
 21
5.669848981077877
 72
    1
 10
232.4999760000001
 20
5.669848981077877
 11
229.9999760000001
 21
9.999976000000089
 97
    0
 75
    0
 76
    1
 52
4.71238898038469
 41
0.5
 77
    0
 78
    0
 98
    0
  0
HATCH
  5
358
100
AcDbEntity
  8
6_hatch
  6
ByLayer
 62
  256
370
   -1
100
AcDbHatch
 10
0
 20
0
 30
0
210
0
220
0
230
1
  2
ansi31
 70
    0
 71
    0
 91
    1
 92
    0
 93
    3
 72
    1
 10
124.9999760000001
 20
9.999976000000061
 11
122.499976
 21
5.669848981077848
 72
    1
 10
122.499976
 20
5.669848981077848
 11
127.4999760000001
 21
5.669848981077848
 72
    1
 10
127.4999760000001
 20
5.669848981077848
 11
124.9999760000001
 21
9.999976000000061
 97
    0
 75
    0
 76
    1
 52
4.71238898038469
 41
0.5
 77
    0
 78
    0
 98
    0
  0
HATCH
  5
359
100
AcDbEntity
  8
6_hatch
  6
ByLayer
 62
  256
370
   -1
100
AcDbHatch
 10
0
 20
0
 30
0
210
0
220
0
230
1
  2
ansi31
 70
    0
 71
    0
 91
    1
 92
    0
 93
    3
 72
    1
 10
410.0000000000002
 20
148.5000000000001
 11
414.3301270189227
 21
146.0000000000002
 72
    1
 10
414.3301270189227
 20
146.0000000000002
 11
414.3301270189222
 21
150.9999999999998
 72
    1
 10
414.3301270189222
 20
150.9999999999998
 11
410.0000000000002
 21
148.5000000000001
 97
    0
 75
    0
 76
    1
 52
3.141592653589793
 41
0.5
 77
    0
 78
    0
 98
    0
  0
HATCH
  5
35A
100
AcDbEntity
  8
6_hatch
  6
ByLayer
 62
  256
370
   -1
100
AcDbHatch
 10
0
 20
0
 30
0
210
0
220
0
230
1
  2
ansi31
 70
    0
 71
    0
 91
    1
 92
    0
 93
    3
 72
    1
 10
19.99999999999989
 20
148.5
 11
15.66987298107769
 21
146
 72
    1
 10
15.66987298107769
 20
146
 11
15.66987298107769
 21
151
 72
    1
 10
15.66987298107769
 20
151
 11
19.99999999999989
 21
148.5
 97
    0
 75
    0
 76
    1
 52
0
 41
0.5
 77
    0
 78
    0
 98
    0
  0
CIRCLE
  5
35B
100
AcDbEntity
  8
Aide PériPhérique
  6
ByLayer
 62
  256
370
   -1
100
AcDbCircle
 10
15.00000000000003
 20
222.7500000000001
 40
3
  0
LINE
  5
35C
100
AcDbEntity
  8
Aide PériPhérique
  6
ByLayer
 62
  256
370
   -1
100
AcDbLine
 10
19.99999999999989
 20
148.5
 11
15.66987298107769
 21
146
  0
LINE
  5
35D
100
AcDbEntity
  8
Aide PériPhérique
  6
ByLayer
 62
  256
370
   -1
100
AcDbLine
 10
19.99999999999989
 20
148.5
 11
15.66987298107769
 21
151
  0
LINE
  5
35E
100
AcDbEntity
  8
Aide PériPhérique
  6
ByLayer
 62
  256
370
   -1
100
AcDbLine
 10
15.66987298107769
 20
146
 11
15.66987298107769
 21
151
  0
CIRCLE
  5
35F
100
AcDbEntity
  8
Aide PériPhérique
  6
ByLayer
 62
  256
370
   -1
100
AcDbCircle
 10
15
 20
74.25000000000011
 40
3
  0
MTEXT
  5
360
100
AcDbEntity
  8
Aide PériPhérique
  6
ByLayer
 62
  256
370
   -1
100
AcDbMText
 10
15
 20
74.25000000000011
 30
0
 40
4
 41
2.666666666666667
 71
    5
 72
    5
  1
A
  7
iso
210
0
220
0
230
1
 50
6.283185307179586
 73
    2
 44
0.96
  0
MTEXT
  5
361
100
AcDbEntity
  8
Aide PériPhérique
  6
ByLayer
 62
  256
370
   -1
100
AcDbMText
 10
15.00000000000003
 20
222.7500000000001
 30
0
 40
4
 41
2.222222222222222
 71
    5
 72
    5
  1
B
  7
iso
210
0
220
0
230
1
 50
6.283185307179586
 73
    2
 44
0.96
  0
LINE
  5
362
100
AcDbEntity
  8
Cadre Extérieur
  6
CONTINUOUS
 62
    7
370
    0
100
AcDbLine
 10
20.00000000000002
 20
287
 11
20
 21
10
  0
LINE
  5
363
100
AcDbEntity
  8
Aide PériPhérique
  6
ByLayer
 62
  256
370
   -1
100
AcDbLine
 10
2.57e-014
 20
297
 11
0
 21
0
  0
LINE
  5
364
100
AcDbEntity
  8
Cadre Extérieur
  6
CONTINUOUS
 62
    7
370
    0
100
AcDbLine
 10
20
 20
10
 11
410
 21
10
  0
LINE
  5
365
100
AcDbEntity
  8
Cadre Extérieur
  6
CONTINUOUS
 62
    7
370
    0
100
AcDbLine
 10
373.600021
 20
65.250094
 11
373.600021
 21
58.875052
  0
LINE
  5
366
100
AcDbEntity
  8
Cadre Extérieur
  6
CONTINUOUS
 62
    7
370
    0
100
AcDbLine
 10
397
 20
26.999987
 11
397
 21
14.250042
  0
LINE
  5
367
100
AcDbEntity
  8
Cadre Extérieur
  6
CONTINUOUS
 62
    7
370
    0
100
AcDbLine
 10
365.8000340000001
 20
14.250107
 11
365.8000340000001
 21
10.000098
  0
LINE
  5
368
100
AcDbEntity
  8
Cadre Extérieur
  6
CONTINUOUS
 62
    7
370
    0
100
AcDbLine
 10
303.400024
 20
65.250097
 11
303.400024
 21
27.000059
  0
LINE
  5
369
100
AcDbEntity
  8
Cadre Extérieur
  6
CONTINUOUS
 62
    7
370
    0
100
AcDbLine
 10
287.8000179999999
 20
48.25009
 11
287.8000179999999
 21
27.000136
  0
LINE
  5
36A
100
AcDbEntity
  8
Cadre Extérieur
  6
CONTINUOUS
 62
    7
370
    0
100
AcDbLine
 10
277.400024
 20
65.25009
 11
277.400024
 21
10.000094
  0
LINE
  5
36B
100
AcDbEntity
  8
Cadre Extérieur
  6
CONTINUOUS
 62
    7
370
    0
100
AcDbLine
 10
321.6000059999999
 20
65.250139
 11
321.6000059999999
 21
10.000097
  0
LINE
  5
36C
100
AcDbEntity
  8
Cadre Extérieur
  6
CONTINUOUS
 62
    7
370
    0
100
AcDbLine
 10
269.6000059999999
 20
48.250082
 11
269.6000369999999
 21
10.000099
  0
LINE
  5
36D
100
AcDbEntity
  8
Cadre Extérieur
  6
CONTINUOUS
 62
    7
370
    0
100
AcDbLine
 10
256.6000059999999
 20
48.250101
 11
256.6000059999999
 21
10.000091
  0
LINE
  5
36E
100
AcDbEntity
  8
Cadre Extérieur
  6
CONTINUOUS
 62
    7
370
    0
100
AcDbLine
 10
230.600006
 20
48.250113
 11
230.600006
 21
10.000093
  0
LINE
  5
36F
100
AcDbEntity
  8
Cadre Extérieur
  6
CONTINUOUS
 62
    7
370
    0
100
AcDbLine
 10
222.800018
 20
31.250075
 11
321.6000059999999
 21
31.250092
  0
LINE
  5
370
100
AcDbEntity
  8
Cadre Extérieur
  6
CONTINUOUS
 62
    7
370
    0
100
AcDbLine
 10
222.800018
 20
35.50008
 11
321.6000059999999
 21
35.500115
  0
LINE
  5
371
100
AcDbEntity
  8
Cadre Extérieur
  6
CONTINUOUS
 62
    7
370
    0
100
AcDbLine
 10
222.800018
 20
39.750116
 11
321.6000369999999
 21
39.750067
  0
LINE
  5
372
100
AcDbEntity
  8
Cadre Extérieur
  6
CONTINUOUS
 62
    7
370
    0
100
AcDbLine
 10
222.800018
 20
44.000097
 11
321.6000369999999
 21
44.000086
  0
LINE
  5
373
100
AcDbEntity
  8
Cadre Extérieur
  6
CONTINUOUS
 62
    7
370
    0
100
AcDbLine
 10
222.800018
 20
22.750055
 11
277.400024
 21
22.750061
  0
LINE
  5
374
100
AcDbEntity
  8
Cadre Extérieur
  6
CONTINUOUS
 62
    7
370
    0
100
AcDbLine
 10
222.800018
 20
18.500054
 11
277.400024
 21
18.500122
  0
LINE
  5
375
100
AcDbEntity
  8
Cadre Extérieur
  6
CONTINUOUS
 62
    7
370
    0
100
AcDbLine
 10
321.6000059999999
 20
58.87512
 11
410
 21
58.87504
  0
LINE
  5
376
100
AcDbEntity
  8
Cadre Extérieur
  6
CONTINUOUS
 62
    7
370
    0
100
AcDbLine
 10
222.800018
 20
14.250083
 11
410
 21
14.25009
  0
LINE
  5
377
100
AcDbEntity
  8
Cadre Extérieur
  6
CONTINUOUS
 62
    7
370
    0
100
AcDbLine
 10
222.800018
 20
48.250086
 11
410.000061
 21
48.250101
  0
LINE
  5
378
100
AcDbEntity
  8
Cadre Extérieur
  6
CONTINUOUS
 62
    7
370
    0
100
AcDbLine
 10
222.800018
 20
27.000107
 11
410.000061
 21
26.999993
  0
LINE
  5
379
100
AcDbEntity
  8
Cadre Extérieur
  6
CONTINUOUS
 62
    7
370
    0
100
AcDbLine
 10
222.800018
 20
65.250086
 11
410
 21
65.25016599999999
  0
LINE
  5
37A
100
AcDbEntity
  8
Cadre Extérieur
  6
CONTINUOUS
 62
    7
370
    0
100
AcDbLine
 10
410.000061
 20
65.250181
 11
410
 21
10
  0
LINE
  5
37B
100
AcDbEntity
  8
Cadre Extérieur
  6
CONTINUOUS
 62
    7
370
    0
100
AcDbLine
 10
410
 20
10
 11
222.800018
 21
10.000101
  0
LINE
  5
37C
100
AcDbEntity
  8
Cadre Extérieur
  6
CONTINUOUS
 62
    7
370
    0
100
AcDbLine
 10
222.800018
 20
65.250086
 11
222.800018
 21
10.000101
  0
LINE
  5
37D
100
AcDbEntity
  8
Symbol ISO
  6
DASHDOT
 62
    7
370
    0
100
AcDbLine
 10
280.2711420000001
 20
57.242876
 11
300.2711420000001
 21
57.242876
  0
CIRCLE
  5
37E
100
AcDbEntity
  8
Symbol ISO
  6
CONTINUOUS
 62
    7
370
    0
100
AcDbCircle
 10
295.4711420000001
 20
57.242876
 40
2.8
  0
CIRCLE
  5
37F
100
AcDbEntity
  8
Symbol ISO
  6
CONTINUOUS
 62
    7
370
    0
100
AcDbCircle
 10
295.4711420000001
 20
57.242876
 40
1.6
  0
LINE
  5
380
100
AcDbEntity
  8
Symbol ISO
  6
CONTINUOUS
 62
    7
370
    0
100
AcDbLine
 10
282.6711419999999
 20
58.842876
 11
282.6711419999999
 21
55.642876
  0
LINE
  5
381
100
AcDbEntity
  8
Symbol ISO
  6
CONTINUOUS
 62
    7
370
    0
100
AcDbLine
 10
282.6711419999999
 20
55.642876
 11
289.071142
 21
54.442876
  0
LINE
  5
382
100
AcDbEntity
  8
Symbol ISO
  6
CONTINUOUS
 62
    7
370
    0
100
AcDbLine
 10
289.071142
 20
60.042876
 11
289.071142
 21
54.442876
  0
LINE
  5
383
100
AcDbEntity
  8
Symbol ISO
  6
CONTINUOUS
 62
    7
370
    0
100
AcDbLine
 10
282.6711419999999
 20
58.842876
 11
289.071142
 21
60.042876
  0
LINE
  5
384
100
AcDbEntity
  8
Symbol ISO
  6
DASHDOT
 62
    7
370
    0
100
AcDbLine
 10
295.4711420000001
 20
52.442876
 11
295.4711420000001
 21
62.042876
  0
MTEXT
  5
385
100
AcDbEntity
  8
text
  6
ByLayer
 62
  256
370
   -1
100
AcDbMText
 10
322.726257
 20
60.81260492786925
 30
0
 40
2.5
 41
18.88984131895054
 71
    7
 72
    5
  1
scale  1 : 1
  7
normal#0.500000#1.500000
210
0
220
0
230
1
 50
0
 73
    1
 44
0.96
  0
MTEXT
  5
386
100
AcDbEntity
  8
text
  6
ByLayer
 62
  256
370
   -1
100
AcDbMText
 10
374.726242
 20
60.53487722222222
 30
0
 40
2.5
 41
9.722224238102887
 71
    7
 72
    5
  1
(mass)
  7
normal#0.500000#1.500000
210
0
220
0
230
1
 50
0
 73
    1
 44
0.96
  0
MTEXT
  5
387
100
AcDbEntity
  8
text
  6
ByLayer
 62
  256
370
   -1
100
AcDbMText
 10
322.7620850000001
 20
54.51309666666666
 30
0
 40
2.5
 41
38.68055628571858
 71
    7
 72
    5
  1
(material, specification)
  7
normal#0.500000#1.500000
210
0
220
0
230
1
 50
0
 73
    1
 44
0.96
  0
MTEXT
  5
388
100
AcDbEntity
  8
text
  6
ByLayer
 62
  256
370
   -1
100
AcDbMText
 10
290.6053770000001
 20
44.87508999999989
 30
0
 40
2.5
 41
6.6666666666669
 71
    7
 72
    5
  1
date
  7
normal#0.500000#1.200000
210
0
220
0
230
1
 50
0
 73
    1
 44
0.96
  0
MTEXT
  5
389
100
AcDbEntity
  8
text
  6
ByLayer
 62
  256
370
   -1
100
AcDbMText
 10
308.1733400000001
 20
44.87508199999989
 30
0
 40
2.5
 41
7.500000000000348
 71
    7
 72
    5
  1
name
  7
normal#0.500000#1.200000
210
0
220
0
230
1
 50
0
 73
    1
 44
0.96
  0
MTEXT
  5
38A
100
AcDbEntity
  8
text
  6
ByLayer
 62
  256
370
   -1
100
AcDbMText
 10
277.713043
 20
39.79171466666655
 30
0
 40
2.5
 41
8.611112396829338
 71
    7
 72
    5
  1
desig.
  7
normal#0.500000#1.200000
210
0
220
0
230
1
 50
0
 73
    1
 44
0.96
  0
MTEXT
  5
38B
100
AcDbEntity
  8
text
  6
ByLayer
 62
  256
370
   -1
100
AcDbMText
 10
277.898956
 20
36.37514499999989
 30
0
 40
2.5
 41
11.38888888888912
 71
    7
 72
    5
  1
check'd
  7
normal#0.500000#1.200000
210
0
220
0
230
1
 50
0
 73
    1
 44
0.96
  0
MTEXT
  5
38C
100
AcDbEntity
  8
text
  6
ByLayer
 62
  256
370
   -1
100
AcDbMText
 10
277.898956
 20
32.12510899999989
 30
0
 40
2.5
 41
7.500000000000234
 71
    7
 72
    5
  1
auth.
  7
normal#0.500000#1.200000
210
0
220
0
230
1
 50
0
 73
    1
 44
0.96
  0
MTEXT
  5
38D
100
AcDbEntity
  8
text
  6
ByLayer
 62
  256
370
   -1
100
AcDbMText
 10
223.114746
 20
10.87509599999988
 30
0
 40
2.5
 41
3.888888888888967
 71
    7
 72
    5
  1
loc
  7
normal#0.500000#1.200000
210
0
220
0
230
1
 50
0
 73
    1
 44
0.96
  0
MTEXT
  5
38E
100
AcDbEntity
  8
text
  6
ByLayer
 62
  256
370
   -1
100
AcDbMText
 10
236.185455
 20
10.04176166666655
 30
0
 40
2.5
 41
10.55555555555614
 71
    7
 72
    5
  1
change
  7
normal#0.500000#1.200000
210
0
220
0
230
1
 50
0
 73
    1
 44
0.96
  0
MTEXT
  5
38F
100
AcDbEntity
  8
text
  6
ByLayer
 62
  256
370
   -1
100
AcDbMText
 10
258.411652
 20
10.87513199999988
 30
0
 40
2.5
 41
6.6666666666669
 71
    7
 72
    5
  1
date
  7
normal#0.500000#1.200000
210
0
220
0
230
1
 50
0
 73
    1
 44
0.96
  0
MTEXT
  5
390
100
AcDbEntity
  8
text
  6
ByLayer
 62
  256
370
   -1
100
AcDbMText
 10
269.6750489999999
 20
10.87506499999988
 30
0
 40
2.5
 41
7.500000000000348
 71
    7
 72
    5
  1
name
  7
normal#0.200000#1.200000
210
0
220
0
230
1
 50
0
 73
    1
 44
0.96
  0
MTEXT
  5
391
100
AcDbEntity
  8
text
  6
ByLayer
 62
  256
370
   -1
100
AcDbMText
 10
278.6523440000001
 20
10.04172966666655
 30
0
 40
2.5
 41
11.38888888888901
 71
    7
 72
    5
  1
project
  7
normal#0.500000#1.200000
210
0
220
0
230
1
 50
0
 73
    1
 44
0.96
  0
MTEXT
  5
392
100
AcDbEntity
  8
text
  6
ByLayer
 62
  256
370
   -1
100
AcDbMText
 10
323.2767329999999
 20
10.04178766666667
 30
0
 40
2.5
 41
13.33333461905145
 71
    7
 72
    5
  1
replaces
  7
normal#0.500000#1.500000
210
0
220
0
230
1
 50
0
 73
    1
 44
0.96
  0
MTEXT
  5
393
100
AcDbEntity
  8
text
  6
ByLayer
 62
  256
370
   -1
100
AcDbMText
 10
367.4767300000001
 20
10.04186066666667
 30
0
 40
2.5
 41
19.09722222222246
 71
    7
 72
    5
  1
replaced by
  7
normal#0.500000#1.500000
210
0
220
0
230
1
 50
0
 73
    1
 44
0.96
  0
MTEXT
  5
394
100
AcDbEntity
  8
text
  6
ByLayer
 62
  256
370
   -1
100
AcDbMText
 10
399.839905
 20
15.2375699422954
 30
0
 40
2
 41
6.889650832938209
 71
    7
 72
    5
  1
sheet
  7
normal#0.500000#0.900000
210
0
220
0
230
1
 50
0
 73
    1
 44
0.96
  0
MTEXT
  5
395
100
AcDbEntity
  8
text
  6
ByLayer
 62
  256
370
   -1
100
AcDbMText
 10
322.496576
 20
27.91470066666667
 30
0
 40
2.5
 41
16.59722222222269
 71
    7
 72
    5
  1
part name
  7
normal#0.500000#0.900000
210
0
220
0
230
1
 50
0
 73
    1
 44
0.96
  0
MTEXT
  5
396
100
AcDbEntity
  8
text
  6
ByLayer
 62
  256
370
   -1
100
AcDbMText
 10
322.2766879999999
 20
14.50148366666667
 30
0
 40
2.5
 41
20.2083333333338
 71
    7
 72
    5
  1
part number
  7
normal#0.500000#0.900000
210
0
220
0
230
1
 50
0
 73
    1
 44
0.96
  0
CIRCLE
  5
397
100
AcDbEntity
  8
Aide PériPhérique
  6
ByLayer
 62
  256
370
   -1
100
AcDbCircle
 10
414.9999999999998
 20
222.7499999999999
 40
3
  0
LINE
  5
398
100
AcDbEntity
  8
Aide PériPhérique
  6
ByLayer
 62
  256
370
   -1
100
AcDbLine
 10
410.0000000000002
 20
148.5000000000001
 11
414.3301270189227
 21
146.0000000000002
  0
LINE
  5
399
100
AcDbEntity
  8
Aide PériPhérique
  6
ByLayer
 62
  256
370
   -1
100
AcDbLine
 10
410.0000000000002
 20
148.5000000000001
 11
414.3301270189222
 21
150.9999999999998
  0
LINE
  5
39A
100
AcDbEntity
  8
Aide PériPhérique
  6
ByLayer
 62
  256
370
   -1
100
AcDbLine
 10
414.3301270189227
 20
146.0000000000002
 11
414.3301270189222
 21
150.9999999999998
  0
CIRCLE
  5
39B
100
AcDbEntity
  8
Aide PériPhérique
  6
ByLayer
 62
  256
370
   -1
100
AcDbCircle
 10
415
 20
74.25
 40
3
  0
MTEXT
  5
39C
100
AcDbEntity
  8
Aide PériPhérique
  6
ByLayer
 62
  256
370
   -1
100
AcDbMText
 10
415
 20
74.25
 30
0
 40
4
 41
2.666666666666667
 71
    5
 72
    5
  1
A
  7
iso
210
0
220
0
230
1
 50
6.283185307179586
 73
    2
 44
0.96
  0
MTEXT
  5
39D
100
AcDbEntity
  8
Aide PériPhérique
  6
ByLayer
 62
  256
370
   -1
100
AcDbMText
 10
414.9999999999998
 20
222.7499999999999
 30
0
 40
4
 41
2.222222222222222
 71
    5
 72
    5
  1
B
  7
iso
210
0
220
0
230
1
 50
6.283185307179586
 73
    2
 44
0.96
  0
LINE
  5
39E
100
AcDbEntity
  8
Cadre Extérieur
  6
CONTINUOUS
 62
    7
370
    0
100
AcDbLine
 10
20.00000000000002
 20
287
 11
410
 21
287
  0
LINE
  5
39F
100
AcDbEntity
  8
Cadre Extérieur
  6
CONTINUOUS
 62
    7
370
    0
100
AcDbLine
 10
410
 20
287
 11
410
 21
10
  0
LINE
  5
3A0
100
AcDbEntity
  8
Aide PériPhérique
  6
ByLayer
 62
  256
370
   -1
100
AcDbLine
 10
420
 20
297
 11
2.57e-014
 21
297
  0
LINE
  5
3A1
100
AcDbEntity
  8
Aide PériPhérique
  6
ByLayer
 62
  256
370
   -1
100
AcDbLine
 10
125
 20
0
 11
125
 21
10
  0
LINE
  5
3A2
100
AcDbEntity
  8
Aide PériPhérique
  6
ByLayer
 62
  256
370
   -1
100
AcDbLine
 10
230
 20
2.84e-014
 11
230
 21
9.999999999999972
  0
LINE
  5
3A3
100
AcDbEntity
  8
Aide PériPhérique
  6
ByLayer
 62
  256
370
   -1
100
AcDbLine
 10
124.9999760000001
 20
9.999976000000061
 11
122.499976
 21
5.669848981077848
  0
LINE
  5
3A4
100
AcDbEntity
  8
Aide PériPhérique
  6
ByLayer
 62
  256
370
   -1
100
AcDbLine
 10
124.9999760000001
 20
9.999976000000061
 11
127.4999760000001
 21
5.669848981077848
  0
LINE
  5
3A5
100
AcDbEntity
  8
Aide PériPhérique
  6
ByLayer
 62
  256
370
   -1
100
AcDbLine
 10
122.499976
 20
5.669848981077848
 11
127.4999760000001
 21
5.669848981077848
  0
CIRCLE
  5
3A6
100
AcDbEntity
  8
Aide PériPhérique
  6
ByLayer
 62
  256
370
   -1
100
AcDbCircle
 10
177.4999999999999
 20
5
 40
3
  0
LINE
  5
3A7
100
AcDbEntity
  8
Aide PériPhérique
  6
ByLayer
 62
  256
370
   -1
100
AcDbLine
 10
229.9999760000001
 20
9.999976000000089
 11
227.4999760000001
 21
5.669848981077877
  0
LINE
  5
3A8
100
AcDbEntity
  8
Aide PériPhérique
  6
ByLayer
 62
  256
370
   -1
100
AcDbLine
 10
229.9999760000001
 20
9.999976000000089
 11
232.4999760000001
 21
5.669848981077877
  0
LINE
  5
3A9
100
AcDbEntity
  8
Aide PériPhérique
  6
ByLayer
 62
  256
370
   -1
100
AcDbLine
 10
227.4999760000001
 20
5.669848981077877
 11
232.4999760000001
 21
5.669848981077877
  0
CIRCLE
  5
3AA
100
AcDbEntity
  8
Aide PériPhérique
  6
ByLayer
 62
  256
370
   -1
100
AcDbCircle
 10
72.49999999999999
 20
5
 40
3
  0
MTEXT
  5
3AB
100
AcDbEntity
  8
Aide PériPhérique
  6
ByLayer
 62
  256
370
   -1
100
AcDbMText
 10
72.49999999999999
 20
5
 30
0
 40
4
 41
0.8888888888888888
 71
    5
 72
    5
  1
1
  7
iso
210
0
220
0
230
1
 50
0
 73
    2
 44
0.96
  0
MTEXT
  5
3AC
100
AcDbEntity
  8
Aide PériPhérique
  6
ByLayer
 62
  256
370
   -1
100
AcDbMText
 10
177.4999999999999
 20
5
 30
0
 40
4
 41
1.777777777777778
 71
    5
 72
    5
  1
2
  7
iso
210
0
220
0
230
1
 50
0
 73
    2
 44
0.96
  0
CIRCLE
  5
3AD
100
AcDbEntity
  8
Aide PériPhérique
  6
ByLayer
 62
  256
370
   -1
100
AcDbCircle
 10
278
 20
5.000000000000057
 40
3
  0
MTEXT
  5
3AE
100
AcDbEntity
  8
Aide PériPhérique
  6
ByLayer
 62
  256
370
   -1
100
AcDbMText
 10
278
 20
5.000000000000057
 30
0
 40
4
 41
1.777777777778026
 71
    5
 72
    5
  1
3
  7
iso
210
0
220
0
230
1
 50
0
 73
    2
 44
0.96
  0
LINE
  5
3AF
100
AcDbEntity
  8
Aide PériPhérique
  6
ByLayer
 62
  256
370
   -1
100
AcDbLine
 10
315
 20
9.999976000000061
 11
312.5
 21
5.669848981077877
  0
LINE
  5
3B0
100
AcDbEntity
  8
Aide PériPhérique
  6
ByLayer
 62
  256
370
   -1
100
AcDbLine
 10
315
 20
9.999976000000061
 11
317.5
 21
5.669848981077905
  0
LINE
  5
3B1
100
AcDbEntity
  8
Aide PériPhérique
  6
ByLayer
 62
  256
370
   -1
100
AcDbLine
 10
312.5
 20
5.669848981077877
 11
317.5
 21
5.669848981077905
  0
CIRCLE
  5
3B2
100
AcDbEntity
  8
Aide PériPhérique
  6
ByLayer
 62
  256
370
   -1
100
AcDbCircle
 10
363.0000239999999
 20
4.999999999999943
 40
3
  0
MTEXT
  5
3B3
100
AcDbEntity
  8
Aide PériPhérique
  6
ByLayer
 62
  256
370
   -1
100
AcDbMText
 10
363.0000239999999
 20
4.999999999999943
 30
0
 40
4
 41
2.222222222222222
 71
    5
 72
    5
  1
4
  7
iso
210
0
220
0
230
1
 50
0
 73
    2
 44
0.96
  0
LINE
  5
3B4
100
AcDbEntity
  8
Aide PériPhérique
  6
ByLayer
 62
  256
370
   -1
100
AcDbLine
 10
420
 20
0
 11
420
 21
297
  0
LINE
  5
3B5
100
AcDbEntity
  8
Aide PériPhérique
  6
ByLayer
 62
  256
370
   -1
100
AcDbLine
 10
3.55e-014
 20
0
 11
420
 21
0
  0
LINE
  5
3B6
100
AcDbEntity
  8
Aide PériPhérique
  6
ByLayer
 62
  256
370
   -1
100
AcDbLine
 10
124.9999999999999
 20
297.0000000000001
 11
125
 21
287
  0
LINE
  5
3B7
100
AcDbEntity
  8
Aide PériPhérique
  6
ByLayer
 62
  256
370
   -1
100
AcDbLine
 10
229.9999999999999
 20
297.0000000000001
 11
230.0000000000001
 21
287
  0
LINE
  5
3B8
100
AcDbEntity
  8
Aide PériPhérique
  6
ByLayer
 62
  256
370
   -1
100
AcDbLine
 10
124.999976
 20
287.0000239999999
 11
122.4999759999999
 21
291.3301510189223
  0
LINE
  5
3B9
100
AcDbEntity
  8
Aide PériPhérique
  6
ByLayer
 62
  256
370
   -1
100
AcDbLine
 10
124.999976
 20
287.0000239999999
 11
127.499976
 21
291.3301510189222
  0
LINE
  5
3BA
100
AcDbEntity
  8
Aide PériPhérique
  6
ByLayer
 62
  256
370
   -1
100
AcDbLine
 10
122.4999759999999
 20
291.3301510189223
 11
127.499976
 21
291.3301510189222
  0
CIRCLE
  5
3BB
100
AcDbEntity
  8
Aide PériPhérique
  6
ByLayer
 62
  256
370
   -1
100
AcDbCircle
 10
177.4999999999999
 20
292.0000000000001
 40
3
  0
LINE
  5
3BC
100
AcDbEntity
  8
Aide PériPhérique
  6
ByLayer
 62
  256
370
   -1
100
AcDbLine
 10
229.9999760000001
 20
287.0000239999999
 11
227.4999760000001
 21
291.3301510189222
  0
LINE
  5
3BD
100
AcDbEntity
  8
Aide PériPhérique
  6
ByLayer
 62
  256
370
   -1
100
AcDbLine
 10
229.9999760000001
 20
287.0000239999999
 11
232.4999759999999
 21
291.3301510189223
  0
LINE
  5
3BE
100
AcDbEntity
  8
Aide PériPhérique
  6
ByLayer
 62
  256
370
   -1
100
AcDbLine
 10
227.4999760000001
 20
291.3301510189222
 11
232.4999759999999
 21
291.3301510189223
  0
CIRCLE
  5
3BF
100
AcDbEntity
  8
Aide PériPhérique
  6
ByLayer
 62
  256
370
   -1
100
AcDbCircle
 10
72.49999999999997
 20
292
 40
3
  0
MTEXT
  5
3C0
100
AcDbEntity
  8
Aide PériPhérique
  6
ByLayer
 62
  256
370
   -1
100
AcDbMText
 10
72.49999999999997
 20
292
 30
0
 40
4
 41
0.8888888888888888
 71
    5
 72
    5
  1
1
  7
iso
210
0
220
0
230
1
 50
0
 73
    2
 44
0.96
  0
MTEXT
  5
3C1
100
AcDbEntity
  8
Aide PériPhérique
  6
ByLayer
 62
  256
370
   -1
100
AcDbMText
 10
177.4999999999999
 20
292.0000000000001
 30
0
 40
4
 41
1.777777777777778
 71
    5
 72
    5
  1
2
  7
iso
210
0
220
0
230
1
 50
0
 73
    2
 44
0.96
  0
CIRCLE
  5
3C2
100
AcDbEntity
  8
Aide PériPhérique
  6
ByLayer
 62
  256
370
   -1
100
AcDbCircle
 10
278
 20
292
 40
3
  0
MTEXT
  5
3C3
100
AcDbEntity
  8
Aide PériPhérique
  6
ByLayer
 62
  256
370
   -1
100
AcDbMText
 10
278
 20
292
 30
0
 40
4
 41
1.777777777778026
 71
    5
 72
    5
  1
3
  7
iso
210
0
220
0
230
1
 50
0
 73
    2
 44
0.96
  0
LINE
  5
3C4
100
AcDbEntity
  8
Aide PériPhérique
  6
ByLayer
 62
  256
370
   -1
100
AcDbLine
 10
314.9999999999999
 20
287.0000240000001
 11
312.4999999999999
 21
291.3301510189223
  0
LINE
  5
3C5
100
AcDbEntity
  8
Aide PériPhérique
  6
ByLayer
 62
  256
370
   -1
100
AcDbLine
 10
314.9999999999999
 20
287.0000240000001
 11
317.4999999999999
 21
291.3301510189223
  0
LINE
  5
3C6
100
AcDbEntity
  8
Aide PériPhérique
  6
ByLayer
 62
  256
370
   -1
100
AcDbLine
 10
312.4999999999999
 20
291.3301510189223
 11
317.4999999999999
 21
291.3301510189223
  0
CIRCLE
  5
3C7
100
AcDbEntity
  8
Aide PériPhérique
  6
ByLayer
 62
  256
370
   -1
100
AcDbCircle
 10
363.0000239999999
 20
292.0000000000003
 40
3
  0
MTEXT
  5
3C8
100
AcDbEntity
  8
Aide PériPhérique
  6
ByLayer
 62
  256
370
   -1
100
AcDbMText
 10
363.0000239999999
 20
292.0000000000003
 30
0
 40
4
 41
2.222222222222222
 71
    5
 72
    5
  1
4
  7
iso
210
0
220
0
230
1
 50
0
 73
    2
 44
0.96
  0
ENDBLK
  5
73
330
71
100
AcDbEntity
  8
0
100
AcDbBlockEnd
  0
BLOCK
  5
75
330
74
100
AcDbEntity
  8
0
100
AcDbBlockBegin
  2
a3-6
 70
    0
 10
0
 20
0
  3
a3-6
  1

  0
CIRCLE
  5
3C9
100
AcDbEntity
  8
Aide PériPhérique
  6
ByLayer
 62
  256
370
   -1
100
AcDbCircle
 10
15.00000000000002
 20
222.7500000000001
 40
3
  0
LINE
  5
3CA
100
AcDbEntity
  8
Aide PériPhérique
  6
ByLayer
 62
  256
370
   -1
100
AcDbLine
 10
19.99999999999989
 20
148.5
 11
15.66987298107769
 21
146
  0
LINE
  5
3CB
100
AcDbEntity
  8
Aide PériPhérique
  6
ByLayer
 62
  256
370
   -1
100
AcDbLine
 10
19.99999999999989
 20
148.5
 11
15.66987298107771
 21
151
  0
LINE
  5
3CC
100
AcDbEntity
  8
Aide PériPhérique
  6
ByLayer
 62
  256
370
   -1
100
AcDbLine
 10
15.66987298107769
 20
146
 11
15.66987298107771
 21
151
  0
CIRCLE
  5
3CD
100
AcDbEntity
  8
Aide PériPhérique
  6
ByLayer
 62
  256
370
   -1
100
AcDbCircle
 10
15
 20
74.25000000000011
 40
3
  0
MTEXT
  5
3CE
100
AcDbEntity
  8
Aide PériPhérique
  6
ByLayer
 62
  256
370
   -1
100
AcDbMText
 10
15
 20
74.25000000000011
 30
0
 40
4
 41
2.666666666666667
 71
    5
 72
    5
  1
A
  7
iso
210
0
220
0
230
1
 50
6.283185307179586
 73
    2
 44
0.96
  0
MTEXT
  5
3CF
100
AcDbEntity
  8
Aide PériPhérique
  6
ByLayer
 62
  256
370
   -1
100
AcDbMText
 10
15.00000000000002
 20
222.7500000000001
 30
0
 40
4
 41
2.222222222222222
 71
    5
 72
    5
  1
B
  7
iso
210
0
220
0
230
1
 50
6.283185307179586
 73
    2
 44
0.96
  0
LINE
  5
3D0
100
AcDbEntity
  8
Cadre Extérieur
  6
ByLayer
 62
  256
370
   -1
100
AcDbLine
 10
20
 20
287
 11
20
 21
10
  0
LINE
  5
3D1
100
AcDbEntity
  8
Aide PériPhérique
  6
ByLayer
 62
  256
370
   -1
100
AcDbLine
 10
1.820071870994866e-014
 20
297
 11
0
 21
0
  0
LINE
  5
3D2
100
AcDbEntity
  8
Cadre Extérieur
  6
ByLayer
 62
  256
370
   -1
100
AcDbLine
 10
20
 20
10
 11
410
 21
9.999999999999945
  0
LINE
  5
3D3
100
AcDbEntity
  8
Cadre Extérieur
  6
ByLayer
 62
  256
370
   -1
100
AcDbLine
 10
373.600021
 20
65.25009399999996
 11
373.600021
 21
58.87505199999991
  0
LINE
  5
3D4
100
AcDbEntity
  8
Cadre Extérieur
  6
ByLayer
 62
  256
370
   -1
100
AcDbLine
 10
397
 20
26.999987
 11
397
 21
14.25004199999935
  0
LINE
  5
3D5
100
AcDbEntity
  8
Cadre Extérieur
  6
ByLayer
 62
  256
370
   -1
100
AcDbLine
 10
365.8000340000001
 20
14.25010700000141
 11
365.8000340000001
 21
10.00009799999988
  0
LINE
  5
3D6
100
AcDbEntity
  8
Cadre Extérieur
  6
ByLayer
 62
  256
370
   -1
100
AcDbLine
 10
303.400024
 20
65.25009699999998
 11
303.400024
 21
27.00005900000017
  0
LINE
  5
3D7
100
AcDbEntity
  8
Cadre Extérieur
  6
ByLayer
 62
  256
370
   -1
100
AcDbLine
 10
287.8000179999999
 20
48.25009000000014
 11
287.8000179999999
 21
27.00013600000004
  0
LINE
  5
3D8
100
AcDbEntity
  8
Cadre Extérieur
  6
ByLayer
 62
  256
370
   -1
100
AcDbLine
 10
277.400024
 20
65.25009000000004
 11
277.400024
 21
10.00009399999885
  0
LINE
  5
3D9
100
AcDbEntity
  8
Cadre Extérieur
  6
ByLayer
 62
  256
370
   -1
100
AcDbLine
 10
321.6000059999999
 20
65.25013900000003
 11
321.6000059999999
 21
10.00009700000059
  0
LINE
  5
3DA
100
AcDbEntity
  8
Cadre Extérieur
  6
ByLayer
 62
  256
370
   -1
100
AcDbLine
 10
269.6000059999999
 20
48.25008199999981
 11
269.6000369999999
 21
10.0000989999999
  0
LINE
  5
3DB
100
AcDbEntity
  8
Cadre Extérieur
  6
ByLayer
 62
  256
370
   -1
100
AcDbLine
 10
256.6000059999999
 20
48.2501010000002
 11
256.6000059999999
 21
10.0000910000006
  0
LINE
  5
3DC
100
AcDbEntity
  8
Cadre Extérieur
  6
ByLayer
 62
  256
370
   -1
100
AcDbLine
 10
230.600006
 20
48.25011300000001
 11
230.600006
 21
10.00009299999965
  0
LINE
  5
3DD
100
AcDbEntity
  8
Cadre Extérieur
  6
ByLayer
 62
  256
370
   -1
100
AcDbLine
 10
222.800018
 20
31.25007499999977
 11
321.6000059999999
 21
31.25009200000036
  0
LINE
  5
3DE
100
AcDbEntity
  8
Cadre Extérieur
  6
ByLayer
 62
  256
370
   -1
100
AcDbLine
 10
222.800018
 20
35.50007999999994
 11
321.6000059999999
 21
35.50011500000002
  0
LINE
  5
3DF
100
AcDbEntity
  8
Cadre Extérieur
  6
ByLayer
 62
  256
370
   -1
100
AcDbLine
 10
222.800018
 20
39.75011599999998
 11
321.6000369999999
 21
39.75006699999997
  0
LINE
  5
3E0
100
AcDbEntity
  8
Cadre Extérieur
  6
ByLayer
 62
  256
370
   -1
100
AcDbLine
 10
222.800018
 20
44.00009699999989
 11
321.6000369999999
 21
44.00008599999977
  0
LINE
  5
3E1
100
AcDbEntity
  8
Cadre Extérieur
  6
ByLayer
 62
  256
370
   -1
100
AcDbLine
 10
222.800018
 20
22.75005499999975
 11
277.400024
 21
22.75006100000023
  0
LINE
  5
3E2
100
AcDbEntity
  8
Cadre Extérieur
  6
ByLayer
 62
  256
370
   -1
100
AcDbLine
 10
222.800018
 20
18.50005400000003
 11
277.400024
 21
18.50012200000026
  0
LINE
  5
3E3
100
AcDbEntity
  8
Cadre Extérieur
  6
ByLayer
 62
  256
370
   -1
100
AcDbLine
 10
321.6000059999999
 20
58.87511999999988
 11
410
 21
58.87504000000014
  0
LINE
  5
3E4
100
AcDbEntity
  8
Cadre Extérieur
  6
ByLayer
 62
  256
370
   -1
100
AcDbLine
 10
222.800018
 20
14.25008299999985
 11
410
 21
14.25008999999916
  0
LINE
  5
3E5
100
AcDbEntity
  8
Cadre Extérieur
  6
ByLayer
 62
  256
370
   -1
100
AcDbLine
 10
222.800018
 20
48.25008599999984
 11
410.000061
 21
48.25010100000019
  0
LINE
  5
3E6
100
AcDbEntity
  8
Cadre Extérieur
  6
ByLayer
 62
  256
370
   -1
100
AcDbLine
 10
222.800018
 20
27.00010700000013
 11
410.000061
 21
26.99999300000035
  0
LINE
  5
3E7
100
AcDbEntity
  8
Cadre Extérieur
  6
ByLayer
 62
  256
370
   -1
100
AcDbLine
 10
222.800018
 20
65.25008599999994
 11
410
 21
65.25016599999992
  0
LINE
  5
3E8
100
AcDbEntity
  8
Cadre Extérieur
  6
ByLayer
 62
  256
370
   -1
100
AcDbLine
 10
410.000061
 20
65.25018100000015
 11
410
 21
9.999999999999945
  0
LINE
  5
3E9
100
AcDbEntity
  8
Cadre Extérieur
  6
ByLayer
 62
  256
370
   -1
100
AcDbLine
 10
410
 20
9.999999999999945
 11
222.800018
 21
10.00010099999966
  0
LINE
  5
3EA
100
AcDbEntity
  8
Cadre Extérieur
  6
ByLayer
 62
  256
370
   -1
100
AcDbLine
 10
222.800018
 20
65.25008599999994
 11
222.800018
 21
10.00010099999966
  0
LINE
  5
3EB
100
AcDbEntity
  8
Symbol ISO
  6
ByLayer
 62
  256
370
   -1
100
AcDbLine
 10
280.2711420000001
 20
57.24287599999997
 11
300.2711420000001
 21
57.24287599999987
  0
CIRCLE
  5
3EC
100
AcDbEntity
  8
Symbol ISO
  6
ByLayer
 62
  256
370
   -1
100
AcDbCircle
 10
295.4711420000001
 20
57.24287599999973
 40
2.8
  0
CIRCLE
  5
3ED
100
AcDbEntity
  8
Symbol ISO
  6
ByLayer
 62
  256
370
   -1
100
AcDbCircle
 10
295.4711420000001
 20
57.24287599999973
 40
1.6
  0
LINE
  5
3EE
100
AcDbEntity
  8
Symbol ISO
  6
ByLayer
 62
  256
370
   -1
100
AcDbLine
 10
282.6711419999999
 20
58.84287599999995
 11
282.6711419999999
 21
55.64287600000003
  0
LINE
  5
3EF
100
AcDbEntity
  8
Symbol ISO
  6
ByLayer
 62
  256
370
   -1
100
AcDbLine
 10
282.6711419999999
 20
55.64287600000003
 11
289.071142
 21
54.44287599999993
  0
LINE
  5
3F0
100
AcDbEntity
  8
Symbol ISO
  6
ByLayer
 62
  256
370
   -1
100
AcDbLine
 10
289.071142
 20
60.04287600000005
 11
289.071142
 21
54.44287599999993
  0
LINE
  5
3F1
100
AcDbEntity
  8
Symbol ISO
  6
ByLayer
 62
  256
370
   -1
100
AcDbLine
 10
282.6711419999999
 20
58.84287599999995
 11
289.071142
 21
60.04287600000005
  0
LINE
  5
3F2
100
AcDbEntity
  8
Symbol ISO
  6
ByLayer
 62
  256
370
   -1
100
AcDbLine
 10
295.4711420000001
 20
52.44287599999988
 11
295.4711420000001
 21
62.04287600000004
  0
MTEXT
  5
3F3
100
AcDbEntity
  8
text
  6
ByLayer
 62
  256
370
   -1
100
AcDbMText
 10
322.726257
 20
60.81260492786927
 30
0
 40
2.5
 41
18.88984131895054
 71
    7
 72
    5
  1
scale  1 : 1
  7
normal#0.500000#1.500000
210
0
220
0
230
1
 50
0
 73
    1
 44
0.96
  0
MTEXT
  5
3F4
100
AcDbEntity
  8
text
  6
ByLayer
 62
  256
370
   -1
100
AcDbMText
 10
374.726242
 20
60.53487722222226
 30
0
 40
2.5
 41
9.722224238102887
 71
    7
 72
    5
  1
(mass)
  7
normal#0.500000#1.500000
210
0
220
0
230
1
 50
0
 73
    1
 44
0.96
  0
MTEXT
  5
3F5
100
AcDbEntity
  8
text
  6
ByLayer
 62
  256
370
   -1
100
AcDbMText
 10
322.7620850000001
 20
54.51309666666654
 30
0
 40
2.5
 41
38.68055628571858
 71
    7
 72
    5
  1
(material, specification)
  7
normal#0.500000#1.500000
210
0
220
0
230
1
 50
0
 73
    1
 44
0.96
  0
MTEXT
  5
3F6
100
AcDbEntity
  8
text
  6
ByLayer
 62
  256
370
   -1
100
AcDbMText
 10
290.6053770000001
 20
44.87508999999979
 30
0
 40
2.5
 41
6.6666666666669
 71
    7
 72
    5
  1
date
  7
normal#0.500000#1.200000
210
0
220
0
230
1
 50
0
 73
    1
 44
0.96
  0
MTEXT
  5
3F7
100
AcDbEntity
  8
text
  6
ByLayer
 62
  256
370
   -1
100
AcDbMText
 10
308.1733400000001
 20
44.87508199999996
 30
0
 40
2.5
 41
7.500000000000348
 71
    7
 72
    5
  1
name
  7
normal#0.500000#1.200000
210
0
220
0
230
1
 50
0
 73
    1
 44
0.96
  0
MTEXT
  5
3F8
100
AcDbEntity
  8
text
  6
ByLayer
 62
  256
370
   -1
100
AcDbMText
 10
277.713043
 20
39.79171466666669
 30
0
 40
2.5
 41
8.611112396829338
 71
    7
 72
    5
  1
desig.
  7
normal#0.500000#1.200000
210
0
220
0
230
1
 50
0
 73
    1
 44
0.96
  0
MTEXT
  5
3F9
100
AcDbEntity
  8
text
  6
ByLayer
 62
  256
370
   -1
100
AcDbMText
 10
277.898956
 20
32.12510899999974
 30
0
 40
2.5
 41
7.500000000000234
 71
    7
 72
    5
  1
auth.
  7
normal#0.500000#1.200000
210
0
220
0
230
1
 50
0
 73
    1
 44
0.96
  0
MTEXT
  5
3FA
100
AcDbEntity
  8
text
  6
ByLayer
 62
  256
370
   -1
100
AcDbMText
 10
223.114746
 20
10.87509599999959
 30
0
 40
2.5
 41
3.888888888888967
 71
    7
 72
    5
  1
loc
  7
normal#0.500000#1.200000
210
0
220
0
230
1
 50
0
 73
    1
 44
0.96
  0
MTEXT
  5
3FB
100
AcDbEntity
  8
text
  6
ByLayer
 62
  256
370
   -1
100
AcDbMText
 10
236.185455
 20
10.0417616666664
 30
0
 40
2.5
 41
10.55555555555614
 71
    7
 72
    5
  1
change
  7
normal#0.500000#1.200000
210
0
220
0
230
1
 50
0
 73
    1
 44
0.96
  0
MTEXT
  5
3FC
100
AcDbEntity
  8
text
  6
ByLayer
 62
  256
370
   -1
100
AcDbMText
 10
258.411652
 20
10.87513200000014
 30
0
 40
2.5
 41
6.6666666666669
 71
    7
 72
    5
  1
date
  7
normal#0.500000#1.200000
210
0
220
0
230
1
 50
0
 73
    1
 44
0.96
  0
MTEXT
  5
3FD
100
AcDbEntity
  8
text
  6
ByLayer
 62
  256
370
   -1
100
AcDbMText
 10
269.6750489999999
 20
10.87506499999954
 30
0
 40
2.5
 41
7.500000000000348
 71
    7
 72
    5
  1
name
  7
normal#0.200000#1.200000
210
0
220
0
230
1
 50
0
 73
    1
 44
0.96
  0
MTEXT
  5
3FE
100
AcDbEntity
  8
text
  6
ByLayer
 62
  256
370
   -1
100
AcDbMText
 10
278.6523440000001
 20
10.04172966666624
 30
0
 40
2.5
 41
11.38888888888901
 71
    7
 72
    5
  1
project
  7
normal#0.500000#1.200000
210
0
220
0
230
1
 50
0
 73
    1
 44
0.96
  0
MTEXT
  5
3FF
100
AcDbEntity
  8
text
  6
ByLayer
 62
  256
370
   -1
100
AcDbMText
 10
323.2767329999999
 20
10.04178766666714
 30
0
 40
2.5
 41
13.33333461905145
 71
    7
 72
    5
  1
replaces
  7
normal#0.500000#1.500000
210
0
220
0
230
1
 50
0
 73
    1
 44
0.96
  0
MTEXT
  5
400
100
AcDbEntity
  8
text
  6
ByLayer
 62
  256
370
   -1
100
AcDbMText
 10
367.4767300000001
 20
10.04186066666497
 30
0
 40
2.5
 41
19.09722222222246
 71
    7
 72
    5
  1
replaced by
  7
normal#0.500000#1.500000
210
0
220
0
230
1
 50
0
 73
    1
 44
0.96
  0
MTEXT
  5
401
100
AcDbEntity
  8
text
  6
ByLayer
 62
  256
370
   -1
100
AcDbMText
 10
399.839905
 20
15.23756994229673
 30
0
 40
2
 41
6.889650832938209
 71
    7
 72
    5
  1
sheet
  7
normal#0.500000#0.900000
210
0
220
0
230
1
 50
0
 73
    1
 44
0.96
  0
MTEXT
  5
402
100
AcDbEntity
  8
text
  6
ByLayer
 62
  256
370
   -1
100
AcDbMText
 10
322.496576
 20
27.91470066666627
 30
0
 40
2.5
 41
16.59722222222269
 71
    7
 72
    5
  1
part name
  7
normal#0.500000#0.900000
210
0
220
0
230
1
 50
0
 73
    1
 44
0.96
  0
MTEXT
  5
403
100
AcDbEntity
  8
text
  6
ByLayer
 62
  256
370
   -1
100
AcDbMText
 10
322.2766879999999
 20
14.5014836666667
 30
0
 40
2.5
 41
20.2083333333338
 71
    7
 72
    5
  1
part number
  7
normal#0.500000#0.900000
210
0
220
0
230
1
 50
0
 73
    1
 44
0.96
  0
CIRCLE
  5
404
100
AcDbEntity
  8
Aide PériPhérique
  6
ByLayer
 62
  256
370
   -1
100
AcDbCircle
 10
414.9999999999998
 20
222.7499999999999
 40
3
  0
LINE
  5
405
100
AcDbEntity
  8
Aide PériPhérique
  6
ByLayer
 62
  256
370
   -1
100
AcDbLine
 10
410.0000000000002
 20
148.5
 11
414.3301270189227
 21
146.0000000000001
  0
LINE
  5
406
100
AcDbEntity
  8
Aide PériPhérique
  6
ByLayer
 62
  256
370
   -1
100
AcDbLine
 10
410.0000000000002
 20
148.5
 11
414.3301270189222
 21
150.9999999999998
  0
LINE
  5
407
100
AcDbEntity
  8
Aide PériPhérique
  6
ByLayer
 62
  256
370
   -1
100
AcDbLine
 10
414.3301270189227
 20
146.0000000000001
 11
414.3301270189222
 21
150.9999999999998
  0
CIRCLE
  5
408
100
AcDbEntity
  8
Aide PériPhérique
  6
ByLayer
 62
  256
370
   -1
100
AcDbCircle
 10
415
 20
74.25000000000007
 40
3
  0
MTEXT
  5
409
100
AcDbEntity
  8
Aide PériPhérique
  6
ByLayer
 62
  256
370
   -1
100
AcDbMText
 10
415
 20
74.25000000000007
 30
0
 40
4
 41
2.666666666666667
 71
    5
 72
    5
  1
A
  7
iso
210
0
220
0
230
1
 50
6.283185307179586
 73
    2
 44
0.96
  0
MTEXT
  5
40A
100
AcDbEntity
  8
Aide PériPhérique
  6
ByLayer
 62
  256
370
   -1
100
AcDbMText
 10
414.9999999999998
 20
222.7499999999999
 30
0
 40
4
 41
2.222222222222222
 71
    5
 72
    5
  1
B
  7
iso
210
0
220
0
230
1
 50
6.283185307179586
 73
    2
 44
0.96
  0
LINE
  5
40B
100
AcDbEntity
  8
Cadre Extérieur
  6
ByLayer
 62
  256
370
   -1
100
AcDbLine
 10
20
 20
287
 11
410
 21
286.9999999999999
  0
LINE
  5
40C
100
AcDbEntity
  8
Cadre Extérieur
  6
ByLayer
 62
  256
370
   -1
100
AcDbLine
 10
410
 20
286.9999999999999
 11
410
 21
9.999999999999945
  0
LINE
  5
40D
100
AcDbEntity
  8
Aide PériPhérique
  6
ByLayer
 62
  256
370
   -1
100
AcDbLine
 10
420
 20
297
 11
1.820071870994866e-014
 21
297
  0
LINE
  5
40E
100
AcDbEntity
  8
Aide PériPhérique
  6
ByLayer
 62
  256
370
   -1
100
AcDbLine
 10
125
 20
0
 11
125
 21
9.999999999999902
  0
LINE
  5
40F
100
AcDbEntity
  8
Aide PériPhérique
  6
ByLayer
 62
  256
370
   -1
100
AcDbLine
 10
230
 20
0
 11
230
 21
10.00000000000048
  0
LINE
  5
410
100
AcDbEntity
  8
Aide PériPhérique
  6
ByLayer
 62
  256
370
   -1
100
AcDbLine
 10
124.9999760000001
 20
9.999976000000135
 11
122.499976
 21
5.669848981077905
  0
LINE
  5
411
100
AcDbEntity
  8
Aide PériPhérique
  6
ByLayer
 62
  256
370
   -1
100
AcDbLine
 10
124.9999760000001
 20
9.999976000000135
 11
127.4999760000001
 21
5.669848981077732
  0
LINE
  5
412
100
AcDbEntity
  8
Aide PériPhérique
  6
ByLayer
 62
  256
370
   -1
100
AcDbLine
 10
122.499976
 20
5.669848981077905
 11
127.4999760000001
 21
5.669848981077732
  0
CIRCLE
  5
413
100
AcDbEntity
  8
Aide PériPhérique
  6
ByLayer
 62
  256
370
   -1
100
AcDbCircle
 10
177.4999999999999
 20
4.999999999999019
 40
3
  0
LINE
  5
414
100
AcDbEntity
  8
Aide PériPhérique
  6
ByLayer
 62
  256
370
   -1
100
AcDbLine
 10
229.9999760000001
 20
9.999976000000681
 11
227.4999760000001
 21
5.66984898107723
  0
LINE
  5
415
100
AcDbEntity
  8
Aide PériPhérique
  6
ByLayer
 62
  256
370
   -1
100
AcDbLine
 10
229.9999760000001
 20
9.999976000000681
 11
232.4999760000001
 21
5.669848981077044
  0
LINE
  5
416
100
AcDbEntity
  8
Aide PériPhérique
  6
ByLayer
 62
  256
370
   -1
100
AcDbLine
 10
227.4999760000001
 20
5.66984898107723
 11
232.4999760000001
 21
5.669848981077044
  0
CIRCLE
  5
417
100
AcDbEntity
  8
Aide PériPhérique
  6
ByLayer
 62
  256
370
   -1
100
AcDbCircle
 10
72.49999999999999
 20
4.999999999999932
 40
3
  0
MTEXT
  5
418
100
AcDbEntity
  8
Aide PériPhérique
  6
ByLayer
 62
  256
370
   -1
100
AcDbMText
 10
72.49999999999999
 20
4.999999999999932
 30
0
 40
4
 41
0.8888888888888888
 71
    5
 72
    5
  1
1
  7
iso
210
0
220
0
230
1
 50
0
 73
    2
 44
0.96
  0
MTEXT
  5
419
100
AcDbEntity
  8
Aide PériPhérique
  6
ByLayer
 62
  256
370
   -1
100
AcDbMText
 10
177.4999999999999
 20
4.999999999999019
 30
0
 40
4
 41
1.777777777777778
 71
    5
 72
    5
  1
2
  7
iso
210
0
220
0
230
1
 50
0
 73
    2
 44
0.96
  0
CIRCLE
  5
41A
100
AcDbEntity
  8
Aide PériPhérique
  6
ByLayer
 62
  256
370
   -1
100
AcDbCircle
 10
278
 20
5.000000000000104
 40
3
  0
MTEXT
  5
41B
100
AcDbEntity
  8
Aide PériPhérique
  6
ByLayer
 62
  256
370
   -1
100
AcDbMText
 10
278
 20
5.000000000000104
 30
0
 40
4
 41
1.777777777778026
 71
    5
 72
    5
  1
3
  7
iso
210
0
220
0
230
1
 50
0
 73
    2
 44
0.96
  0
LINE
  5
41C
100
AcDbEntity
  8
Aide PériPhérique
  6
ByLayer
 62
  256
370
   -1
100
AcDbLine
 10
315
 20
9.999975999999624
 11
312.5
 21
5.66984898107766
  0
LINE
  5
41D
100
AcDbEntity
  8
Aide PériPhérique
  6
ByLayer
 62
  256
370
   -1
100
AcDbLine
 10
315
 20
9.999975999999624
 11
317.5
 21
5.669848981077923
  0
LINE
  5
41E
100
AcDbEntity
  8
Aide PériPhérique
  6
ByLayer
 62
  256
370
   -1
100
AcDbLine
 10
312.5
 20
5.66984898107766
 11
317.5
 21
5.669848981077923
  0
CIRCLE
  5
41F
100
AcDbEntity
  8
Aide PériPhérique
  6
ByLayer
 62
  256
370
   -1
100
AcDbCircle
 10
363.0000239999999
 20
4.999999999999614
 40
3
  0
MTEXT
  5
420
100
AcDbEntity
  8
Aide PériPhérique
  6
ByLayer
 62
  256
370
   -1
100
AcDbMText
 10
363.0000239999999
 20
4.999999999999614
 30
0
 40
4
 41
2.222222222222222
 71
    5
 72
    5
  1
4
  7
iso
210
0
220
0
230
1
 50
0
 73
    2
 44
0.96
  0
LINE
  5
421
100
AcDbEntity
  8
Aide PériPhérique
  6
ByLayer
 62
  256
370
   -1
100
AcDbLine
 10
420
 20
0
 11
420
 21
297
  0
LINE
  5
422
100
AcDbEntity
  8
Aide PériPhérique
  6
ByLayer
 62
  256
370
   -1
100
AcDbLine
 10
3.549938121238938e-014
 20
0
 11
420
 21
0
  0
LINE
  5
423
100
AcDbEntity
  8
Aide PériPhérique
  6
ByLayer
 62
  256
370
   -1
100
AcDbLine
 10
124.9999999999999
 20
297.0000000000002
 11
125
 21
287
  0
LINE
  5
424
100
AcDbEntity
  8
Aide PériPhérique
  6
ByLayer
 62
  256
370
   -1
100
AcDbLine
 10
229.9999999999999
 20
297.0000000000002
 11
230
 21
287
  0
LINE
  5
425
100
AcDbEntity
  8
Aide PériPhérique
  6
ByLayer
 62
  256
370
   -1
100
AcDbLine
 10
124.999976
 20
287.0000239999999
 11
122.4999759999999
 21
291.3301510189223
  0
LINE
  5
426
100
AcDbEntity
  8
Aide PériPhérique
  6
ByLayer
 62
  256
370
   -1
100
AcDbLine
 10
124.999976
 20
287.0000239999999
 11
127.4999760000001
 21
291.3301510189222
  0
LINE
  5
427
100
AcDbEntity
  8
Aide PériPhérique
  6
ByLayer
 62
  256
370
   -1
100
AcDbLine
 10
122.4999759999999
 20
291.3301510189223
 11
127.4999760000001
 21
291.3301510189222
  0
CIRCLE
  5
428
100
AcDbEntity
  8
Aide PériPhérique
  6
ByLayer
 62
  256
370
   -1
100
AcDbCircle
 10
177.4999999999999
 20
292.0000000000001
 40
3
  0
LINE
  5
429
100
AcDbEntity
  8
Aide PériPhérique
  6
ByLayer
 62
  256
370
   -1
100
AcDbLine
 10
229.9999760000001
 20
287.000024
 11
227.4999760000001
 21
291.3301510189222
  0
LINE
  5
42A
100
AcDbEntity
  8
Aide PériPhérique
  6
ByLayer
 62
  256
370
   -1
100
AcDbLine
 10
229.9999760000001
 20
287.000024
 11
232.4999759999999
 21
291.3301510189223
  0
LINE
  5
42B
100
AcDbEntity
  8
Aide PériPhérique
  6
ByLayer
 62
  256
370
   -1
100
AcDbLine
 10
227.4999760000001
 20
291.3301510189222
 11
232.4999759999999
 21
291.3301510189223
  0
CIRCLE
  5
42C
100
AcDbEntity
  8
Aide PériPhérique
  6
ByLayer
 62
  256
370
   -1
100
AcDbCircle
 10
72.49999999999997
 20
292
 40
3
  0
MTEXT
  5
42D
100
AcDbEntity
  8
Aide PériPhérique
  6
ByLayer
 62
  256
370
   -1
100
AcDbMText
 10
72.49999999999997
 20
292
 30
0
 40
4
 41
0.8888888888888888
 71
    5
 72
    5
  1
1
  7
iso
210
0
220
0
230
1
 50
0
 73
    2
 44
0.96
  0
MTEXT
  5
42E
100
AcDbEntity
  8
Aide PériPhérique
  6
ByLayer
 62
  256
370
   -1
100
AcDbMText
 10
177.4999999999999
 20
292.0000000000001
 30
0
 40
4
 41
1.777777777777778
 71
    5
 72
    5
  1
2
  7
iso
210
0
220
0
230
1
 50
0
 73
    2
 44
0.96
  0
CIRCLE
  5
42F
100
AcDbEntity
  8
Aide PériPhérique
  6
ByLayer
 62
  256
370
   -1
100
AcDbCircle
 10
278
 20
292
 40
3
  0
MTEXT
  5
430
100
AcDbEntity
  8
Aide PériPhérique
  6
ByLayer
 62
  256
370
   -1
100
AcDbMText
 10
278
 20
292
 30
0
 40
4
 41
1.777777777778026
 71
    5
 72
    5
  1
3
  7
iso
210
0
220
0
230
1
 50
0
 73
    2
 44
0.96
  0
LINE
  5
431
100
AcDbEntity
  8
Aide PériPhérique
  6
ByLayer
 62
  256
370
   -1
100
AcDbLine
 10
315
 20
287.0000240000001
 11
312.4999999999999
 21
291.3301510189223
  0
LINE
  5
432
100
AcDbEntity
  8
Aide PériPhérique
  6
ByLayer
 62
  256
370
   -1
100
AcDbLine
 10
315
 20
287.0000240000001
 11
317.4999999999999
 21
291.3301510189222
  0
LINE
  5
433
100
AcDbEntity
  8
Aide PériPhérique
  6
ByLayer
 62
  256
370
   -1
100
AcDbLine
 10
312.4999999999999
 20
291.3301510189223
 11
317.4999999999999
 21
291.3301510189222
  0
CIRCLE
  5
434
100
AcDbEntity
  8
Aide PériPhérique
  6
ByLayer
 62
  256
370
   -1
100
AcDbCircle
 10
363.0000239999999
 20
292.0000000000003
 40
3
  0
MTEXT
  5
435
100
AcDbEntity
  8
Aide PériPhérique
  6
ByLayer
 62
  256
370
   -1
100
AcDbMText
 10
363.0000239999999
 20
292.0000000000003
 30
0
 40
4
 41
2.222222222222222
 71
    5
 72
    5
  1
4
  7
iso
210
0
220
0
230
1
 50
0
 73
    2
 44
0.96
  0
MTEXT
  5
436
100
AcDbEntity
  8
text
  6
ByLayer
 62
  256
370
   -1
100
AcDbMText
 10
223.114746
 20
15.12517929166619
 30
0
 40
2.5
 41
3.055555555555555
 71
    7
 72
    5
  1
A1
  7
normal#0.500000#1.200000
210
0
220
0
230
1
 50
0
 73
    1
 44
0.96
  0
MTEXT
  5
437
100
AcDbEntity
  8
text
  6
ByLayer
 62
  256
370
   -1
100
AcDbMText
 10
232.2019345855434
 20
14.2918448093763
 30
0
 40
2.5
 41
20.76389017460735
 71
    7
 72
    5
  1
initial design
  7
normal#0.500000#1.200000
210
0
220
0
230
1
 50
0
 73
    1
 44
0.96
  0
MTEXT
  5
438
100
AcDbEntity
  8
text
  6
ByLayer
 62
  256
370
   -1
100
AcDbMText
 10
256.6190678060468
 20
15.12521522463579
 30
0
 40
2.5
 41
13.05555555555556
 71
    7
 72
    5
  1
01/01/01
  7
iso8859-11
210
0
220
0
230
1
 50
0
 73
    1
 44
0.96
  0
MTEXT
  5
439
100
AcDbEntity
  8
text
  6
ByLayer
 62
  256
370
   -1
100
AcDbMText
 10
270.6709291036141
 20
15.12514832890515
 30
0
 40
2.5
 41
5.555555555555865
 71
    7
 72
    5
  1
DDil
  7
normal#0.200000#1.200000
210
0
220
0
230
1
 50
0
 73
    1
 44
0.96
  0
MTEXT
  5
43A
100
AcDbEntity
  8
text
  6
ByLayer
 62
  256
370
   -1
100
AcDbMText
 10
288.1130369999998
 20
40.62504166667172
 30
0
 40
2.5
 41
14.44444444444444
 71
    7
 72
    5
  1
07/01/04
  7
normal#0.500000#1.200000
210
0
220
0
230
1
 50
0
 73
    1
 44
0.96
  0
MTEXT
  5
43B
100
AcDbEntity
  8
text
  6
ByLayer
 62
  256
370
   -1
100
AcDbMText
 10
288.2989499999999
 20
36.3751386666716
 30
0
 40
2.5
 41
4.722222222222339
 71
    7
 72
    5
  1
tbd
  7
normal#0.500000#1.200000
210
0
220
0
230
1
 50
0
 73
    1
 44
0.96
  0
MTEXT
  5
43C
100
AcDbEntity
  8
text
  6
ByLayer
 62
  256
370
   -1
100
AcDbMText
 10
288.2989499999999
 20
32.12510266667161
 30
0
 40
2.5
 41
4.722222222222339
 71
    7
 72
    5
  1
tbd
  7
normal#0.500000#1.200000
210
0
220
0
230
1
 50
0
 73
    1
 44
0.96
  0
MTEXT
  5
43D
100
AcDbEntity
  8
text
  6
ByLayer
 62
  256
370
   -1
100
AcDbMText
 10
303.713043
 20
40.62503216667014
 30
0
 40
2.5
 41
3.055555555555672
 71
    7
 72
    5
  1
dil
  7
normal#0.500000#1.200000
210
0
220
0
230
1
 50
0
 73
    1
 44
0.96
  0
MTEXT
  5
43E
100
AcDbEntity
  8
text
  6
ByLayer
 62
  256
370
   -1
100
AcDbMText
 10
303.898956
 20
36.37512916667013
 30
0
 40
2.5
 41
3.055555555555672
 71
    7
 72
    5
  1
dil
  7
normal#0.500000#1.200000
210
0
220
0
230
1
 50
0
 73
    1
 44
0.96
  0
MTEXT
  5
43F
100
AcDbEntity
  8
text
  6
ByLayer
 62
  256
370
   -1
100
AcDbMText
 10
303.898956
 20
32.12509316667014
 30
0
 40
2.5
 41
3.055555555555672
 71
    7
 72
    5
  1
dil
  7
normal#0.500000#1.200000
210
0
220
0
230
1
 50
0
 73
    1
 44
0.96
  0
MTEXT
  5
440
100
AcDbEntity
  8
text
  6
ByLayer
 62
  256
370
   -1
100
AcDbMText
 10
364.9090859750838
 20
38.6401480202294
 30
0
 40
4
 41
13.66819055476531
 71
    5
 72
    5
  1
title\Psub t
  7
iso
210
0
220
0
230
1
 50
0
 73
    2
 44
0.96
  0
MTEXT
  5
441
100
AcDbEntity
  8
text
  6
ByLayer
 62
  256
370
   -1
100
AcDbMText
 10
368.494254348095
 20
20.51513013445166
 30
0
 40
8
 41
38.22222222222321
 71
    5
 72
    5
  1
DD00NN
  7
iso
210
0
220
0
230
1
 50
0
 73
    2
 44
0.96
  0
MTEXT
  5
442
100
AcDbEntity
  8
text
  6
ByLayer
 62
  256
370
   -1
100
AcDbMText
 10
293.7897215674873
 20
10.04173023270097
 30
0
 40
2.5
 41
11.38888888888901
 71
    7
 72
    5
  1
project
  7
normal#0.500000#1.200000
210
0
220
0
230
1
 50
0
 73
    1
 44
0.96
  0
MTEXT
  5
443
100
AcDbEntity
  8
text
  6
ByLayer
 62
  256
370
   -1
100
AcDbMText
 10
403.1508819538676
 20
21.71018625878866
 30
0
 40
4
 41
6.222222222222221
 71
    5
 72
    5
  1
1/1
  7
iso
210
0
220
0
230
1
 50
0
 73
    2
 44
0.96
  0
MTEXT
  5
444
100
AcDbEntity
  8
text
  6
ByLayer
 62
  256
370
   -1
100
AcDbMText
 10
277.898956
 20
36.37514499999961
 30
0
 40
2.5
 41
8.333333333333567
 71
    7
 72
    5
  1
check
  7
normal#0.500000#1.200000
210
0
220
0
230
1
 50
0
 73
    1
 44
0.96
  0
ENDBLK
  5
76
330
74
100
AcDbEntity
  8
0
100
AcDbBlockEnd
  0
BLOCK
  5
78
330
77
100
AcDbEntity
  8
0
100
AcDbBlockBegin
  2
MCCB
 70
    0
 10
0
 20
0
  3
MCCB
  1

  0
ENDBLK
  5
79
330
77
100
AcDbEntity
  8
0
100
AcDbBlockEnd
  0
BLOCK
  5
7B
330
7A
100
AcDbEntity
  8
0
100
AcDbBlockBegin
  2
A3_a3
 70
    0
 10
0
 20
0
  3
A3_a3
  1

  0
LWPOLYLINE
  5
445
100
AcDbEntity
  8
0
  6
ByLayer
 62
  256
370
   -1
100
AcDbPolyline
 90
    4
 70
    1
 43
0
 10
0
 20
0.9027355623100314
 10
420
 20
0.9027355623100314
 10
420
 20
297.9027355623101
 10
0
 20
297.9027355623101
  0
MTEXT
  5
446
100
AcDbEntity
  8
2_Fin
  6
ByLayer
 62
  256
370
   -1
100
AcDbMText
 10
52.57116788321171
 20
161.7631048950951
 30
0
 40
1
 41
0
 71
    1
 72
    1
  1

  7
standard
210
0
220
0
230
1
 50
0
 73
    2
 44
1
  0
CIRCLE
  5
447
100
AcDbEntity
  8
Aide PériPhérique
  6
ByLayer
 62
  256
370
   -1
100
AcDbCircle
 10
15.00000000000002
 20
223.6527355623101
 40
3
  0
LINE
  5
448
100
AcDbEntity
  8
Aide PériPhérique
  6
ByLayer
 62
  256
370
   -1
100
AcDbLine
 10
19.99999999999989
 20
149.40273556231
 11
15.66987298107769
 21
146.90273556231
  0
LINE
  5
449
100
AcDbEntity
  8
Aide PériPhérique
  6
ByLayer
 62
  256
370
   -1
100
AcDbLine
 10
19.99999999999989
 20
149.40273556231
 11
15.66987298107771
 21
151.90273556231
  0
LINE
  5
44A
100
AcDbEntity
  8
Aide PériPhérique
  6
ByLayer
 62
  256
370
   -1
100
AcDbLine
 10
15.66987298107769
 20
146.90273556231
 11
15.66987298107771
 21
151.90273556231
  0
CIRCLE
  5
44B
100
AcDbEntity
  8
Aide PériPhérique
  6
ByLayer
 62
  256
370
   -1
100
AcDbCircle
 10
15
 20
75.15273556231014
 40
3
  0
MTEXT
  5
44C
100
AcDbEntity
  8
Aide PériPhérique
  6
ByLayer
 62
  256
370
   -1
100
AcDbMText
 10
15
 20
75.15273556231014
 30
0
 40
4
 41
2.666666666666667
 71
    5
 72
    5
  1
A
  7
iso
210
0
220
0
230
1
 50
6.283185307179586
 73
    2
 44
0.96
  0
MTEXT
  5
44D
100
AcDbEntity
  8
Aide PériPhérique
  6
ByLayer
 62
  256
370
   -1
100
AcDbMText
 10
15.00000000000002
 20
223.6527355623101
 30
0
 40
4
 41
2.222222222222222
 71
    5
 72
    5
  1
B
  7
iso
210
0
220
0
230
1
 50
6.283185307179586
 73
    2
 44
0.96
  0
LINE
  5
44E
100
AcDbEntity
  8
Cadre Extérieur
  6
ByLayer
 62
  256
370
   -1
100
AcDbLine
 10
20
 20
287.9027355623101
 11
20
 21
10.90273556231003
  0
LINE
  5
44F
100
AcDbEntity
  8
Aide PériPhérique
  6
ByLayer
 62
  256
370
   -1
100
AcDbLine
 10
1.82e-014
 20
297.9027355623101
 11
0
 21
0.9027355623100314
  0
LINE
  5
450
100
AcDbEntity
  8
Cadre Extérieur
  6
ByLayer
 62
  256
370
   -1
100
AcDbLine
 10
20
 20
10.90273556231003
 11
410
 21
10.90273556230998
  0
LINE
  5
451
100
AcDbEntity
  8
Cadre Extérieur
  6
ByLayer
 62
  256
370
   -1
100
AcDbLine
 10
410.000061
 20
66.15291656231018
 11
410
 21
10.90273556230998
  0
LINE
  5
452
100
AcDbEntity
  8
Cadre Extérieur
  6
ByLayer
 62
  256
370
   -1
100
AcDbLine
 10
410
 20
10.90273556230998
 11
222.800018
 21
10.90283656230969
  0
LINE
  5
453
100
AcDbEntity
  8
Symbol ISO
  6
ByLayer
 62
  256
370
   -1
100
AcDbLine
 10
280.2711420000001
 20
58.14561156231
 11
300.2711420000001
 21
58.1456115623099
  0
CIRCLE
  5
454
100
AcDbEntity
  8
Symbol ISO
  6
ByLayer
 62
  256
370
   -1
100
AcDbCircle
 10
295.4711420000001
 20
58.14561156230977
 40
2.8
  0
CIRCLE
  5
455
100
AcDbEntity
  8
Symbol ISO
  6
ByLayer
 62
  256
370
   -1
100
AcDbCircle
 10
295.4711420000001
 20
58.14561156230977
 40
1.6
  0
LINE
  5
456
100
AcDbEntity
  8
Symbol ISO
  6
ByLayer
 62
  256
370
   -1
100
AcDbLine
 10
282.6711419999999
 20
59.74561156230998
 11
282.6711419999999
 21
56.54561156231006
  0
LINE
  5
457
100
AcDbEntity
  8
Symbol ISO
  6
ByLayer
 62
  256
370
   -1
100
AcDbLine
 10
282.6711419999999
 20
56.54561156231006
 11
289.071142
 21
55.34561156230996
  0
LINE
  5
458
100
AcDbEntity
  8
Symbol ISO
  6
ByLayer
 62
  256
370
   -1
100
AcDbLine
 10
289.071142
 20
60.94561156231008
 11
289.071142
 21
55.34561156230996
  0
LINE
  5
459
100
AcDbEntity
  8
Symbol ISO
  6
ByLayer
 62
  256
370
   -1
100
AcDbLine
 10
282.6711419999999
 20
59.74561156230998
 11
289.071142
 21
60.94561156231008
  0
LINE
  5
45A
100
AcDbEntity
  8
Symbol ISO
  6
ByLayer
 62
  256
370
   -1
100
AcDbLine
 10
295.4711420000001
 20
53.34561156230991
 11
295.4711420000001
 21
62.94561156231008
  0
CIRCLE
  5
45B
100
AcDbEntity
  8
Aide PériPhérique
  6
ByLayer
 62
  256
370
   -1
100
AcDbCircle
 10
414.9999999999998
 20
223.6527355623099
 40
3
  0
LINE
  5
45C
100
AcDbEntity
  8
Aide PériPhérique
  6
ByLayer
 62
  256
370
   -1
100
AcDbLine
 10
410.0000000000002
 20
149.40273556231
 11
414.3301270189227
 21
146.9027355623101
  0
LINE
  5
45D
100
AcDbEntity
  8
Aide PériPhérique
  6
ByLayer
 62
  256
370
   -1
100
AcDbLine
 10
410.0000000000002
 20
149.40273556231
 11
414.3301270189222
 21
151.9027355623098
  0
LINE
  5
45E
100
AcDbEntity
  8
Aide PériPhérique
  6
ByLayer
 62
  256
370
   -1
100
AcDbLine
 10
414.3301270189227
 20
146.9027355623101
 11
414.3301270189222
 21
151.9027355623098
  0
CIRCLE
  5
45F
100
AcDbEntity
  8
Aide PériPhérique
  6
ByLayer
 62
  256
370
   -1
100
AcDbCircle
 10
415
 20
75.1527355623101
 40
3
  0
MTEXT
  5
460
100
AcDbEntity
  8
Aide PériPhérique
  6
ByLayer
 62
  256
370
   -1
100
AcDbMText
 10
415
 20
75.1527355623101
 30
0
 40
4
 41
2.666666666666667
 71
    5
 72
    5
  1
A
  7
iso
210
0
220
0
230
1
 50
6.283185307179586
 73
    2
 44
0.96
  0
MTEXT
  5
461
100
AcDbEntity
  8
Aide PériPhérique
  6
ByLayer
 62
  256
370
   -1
100
AcDbMText
 10
414.9999999999998
 20
223.6527355623099
 30
0
 40
4
 41
2.222222222222222
 71
    5
 72
    5
  1
B
  7
iso
210
0
220
0
230
1
 50
6.283185307179586
 73
    2
 44
0.96
  0
LINE
  5
462
100
AcDbEntity
  8
Cadre Extérieur
  6
ByLayer
 62
  256
370
   -1
100
AcDbLine
 10
20
 20
287.9027355623101
 11
410
 21
287.9027355623099
  0
LINE
  5
463
100
AcDbEntity
  8
Cadre Extérieur
  6
ByLayer
 62
  256
370
   -1
100
AcDbLine
 10
410
 20
287.9027355623099
 11
410
 21
10.90273556230998
  0
LINE
  5
464
100
AcDbEntity
  8
Aide PériPhérique
  6
ByLayer
 62
  256
370
   -1
100
AcDbLine
 10
420
 20
297.9027355623101
 11
1.82e-014
 21
297.9027355623101
  0
LINE
  5
465
100
AcDbEntity
  8
Aide PériPhérique
  6
ByLayer
 62
  256
370
   -1
100
AcDbLine
 10
125
 20
0.9027355623100314
 11
125
 21
10.90273556230993
  0
LINE
  5
466
100
AcDbEntity
  8
Aide PériPhérique
  6
ByLayer
 62
  256
370
   -1
100
AcDbLine
 10
230
 20
0.9027355623100314
 11
230
 21
10.90273556231051
  0
LINE
  5
467
100
AcDbEntity
  8
Aide PériPhérique
  6
ByLayer
 62
  256
370
   -1
100
AcDbLine
 10
124.9999760000001
 20
10.90271156231017
 11
122.499976
 21
6.572584543387936
  0
LINE
  5
468
100
AcDbEntity
  8
Aide PériPhérique
  6
ByLayer
 62
  256
370
   -1
100
AcDbLine
 10
124.9999760000001
 20
10.90271156231017
 11
127.4999760000001
 21
6.572584543387763
  0
LINE
  5
469
100
AcDbEntity
  8
Aide PériPhérique
  6
ByLayer
 62
  256
370
   -1
100
AcDbLine
 10
122.499976
 20
6.572584543387936
 11
127.4999760000001
 21
6.572584543387763
  0
CIRCLE
  5
46A
100
AcDbEntity
  8
Aide PériPhérique
  6
ByLayer
 62
  256
370
   -1
100
AcDbCircle
 10
177.4999999999999
 20
5.90273556230905
 40
3
  0
LINE
  5
46B
100
AcDbEntity
  8
Aide PériPhérique
  6
ByLayer
 62
  256
370
   -1
100
AcDbLine
 10
229.9999760000001
 20
10.90271156231071
 11
227.4999760000001
 21
6.572584543387261
  0
LINE
  5
46C
100
AcDbEntity
  8
Aide PériPhérique
  6
ByLayer
 62
  256
370
   -1
100
AcDbLine
 10
229.9999760000001
 20
10.90271156231071
 11
232.4999760000001
 21
6.572584543387075
  0
LINE
  5
46D
100
AcDbEntity
  8
Aide PériPhérique
  6
ByLayer
 62
  256
370
   -1
100
AcDbLine
 10
227.4999760000001
 20
6.572584543387261
 11
232.4999760000001
 21
6.572584543387075
  0
CIRCLE
  5
46E
100
AcDbEntity
  8
Aide PériPhérique
  6
ByLayer
 62
  256
370
   -1
100
AcDbCircle
 10
72.49999999999999
 20
5.902735562309963
 40
3
  0
MTEXT
  5
46F
100
AcDbEntity
  8
Aide PériPhérique
  6
ByLayer
 62
  256
370
   -1
100
AcDbMText
 10
72.49999999999999
 20
5.902735562309963
 30
0
 40
4
 41
0.8888888888888888
 71
    5
 72
    5
  1
1
  7
iso
210
0
220
0
230
1
 50
0
 73
    2
 44
0.96
  0
MTEXT
  5
470
100
AcDbEntity
  8
Aide PériPhérique
  6
ByLayer
 62
  256
370
   -1
100
AcDbMText
 10
177.4999999999999
 20
5.90273556230905
 30
0
 40
4
 41
1.777777777777778
 71
    5
 72
    5
  1
2
  7
iso
210
0
220
0
230
1
 50
0
 73
    2
 44
0.96
  0
CIRCLE
  5
471
100
AcDbEntity
  8
Aide PériPhérique
  6
ByLayer
 62
  256
370
   -1
100
AcDbCircle
 10
278
 20
5.902735562310135
 40
3
  0
MTEXT
  5
472
100
AcDbEntity
  8
Aide PériPhérique
  6
ByLayer
 62
  256
370
   -1
100
AcDbMText
 10
278
 20
5.902735562310135
 30
0
 40
4
 41
1.777777777778026
 71
    5
 72
    5
  1
3
  7
iso
210
0
220
0
230
1
 50
0
 73
    2
 44
0.96
  0
LINE
  5
473
100
AcDbEntity
  8
Aide PériPhérique
  6
ByLayer
 62
  256
370
   -1
100
AcDbLine
 10
315
 20
10.90271156230965
 11
312.5
 21
6.572584543387691
  0
LINE
  5
474
100
AcDbEntity
  8
Aide PériPhérique
  6
ByLayer
 62
  256
370
   -1
100
AcDbLine
 10
315
 20
10.90271156230965
 11
317.5
 21
6.572584543387954
  0
LINE
  5
475
100
AcDbEntity
  8
Aide PériPhérique
  6
ByLayer
 62
  256
370
   -1
100
AcDbLine
 10
312.5
 20
6.572584543387691
 11
317.5
 21
6.572584543387954
  0
CIRCLE
  5
476
100
AcDbEntity
  8
Aide PériPhérique
  6
ByLayer
 62
  256
370
   -1
100
AcDbCircle
 10
363.0000239999999
 20
5.902735562309645
 40
3
  0
MTEXT
  5
477
100
AcDbEntity
  8
Aide PériPhérique
  6
ByLayer
 62
  256
370
   -1
100
AcDbMText
 10
363.0000239999999
 20
5.902735562309645
 30
0
 40
4
 41
2.222222222222222
 71
    5
 72
    5
  1
4
  7
iso
210
0
220
0
230
1
 50
0
 73
    2
 44
0.96
  0
LINE
  5
478
100
AcDbEntity
  8
Aide PériPhérique
  6
ByLayer
 62
  256
370
   -1
100
AcDbLine
 10
420
 20
0.9027355623100314
 11
420
 21
297.9027355623101
  0
LINE
  5
479
100
AcDbEntity
  8
Aide PériPhérique
  6
ByLayer
 62
  256
370
   -1
100
AcDbLine
 10
3.55e-014
 20
0.9027355623100314
 11
420
 21
0.9027355623100314
  0
LINE
  5
47A
100
AcDbEntity
  8
Aide PériPhérique
  6
ByLayer
 62
  256
370
   -1
100
AcDbLine
 10
124.9999999999999
 20
297.9027355623103
 11
125
 21
287.9027355623101
  0
LINE
  5
47B
100
AcDbEntity
  8
Aide PériPhérique
  6
ByLayer
 62
  256
370
   -1
100
AcDbLine
 10
229.9999999999999
 20
297.9027355623103
 11
230
 21
287.9027355623101
  0
LINE
  5
47C
100
AcDbEntity
  8
Aide PériPhérique
  6
ByLayer
 62
  256
370
   -1
100
AcDbLine
 10
124.999976
 20
287.9027595623099
 11
122.4999759999999
 21
292.2328865812324
  0
LINE
  5
47D
100
AcDbEntity
  8
Aide PériPhérique
  6
ByLayer
 62
  256
370
   -1
100
AcDbLine
 10
124.999976
 20
287.9027595623099
 11
127.4999760000001
 21
292.2328865812323
  0
LINE
  5
47E
100
AcDbEntity
  8
Aide PériPhérique
  6
ByLayer
 62
  256
370
   -1
100
AcDbLine
 10
122.4999759999999
 20
292.2328865812324
 11
127.4999760000001
 21
292.2328865812323
  0
CIRCLE
  5
47F
100
AcDbEntity
  8
Aide PériPhérique
  6
ByLayer
 62
  256
370
   -1
100
AcDbCircle
 10
177.4999999999999
 20
292.9027355623102
 40
3
  0
LINE
  5
480
100
AcDbEntity
  8
Aide PériPhérique
  6
ByLayer
 62
  256
370
   -1
100
AcDbLine
 10
229.9999760000001
 20
287.9027595623101
 11
227.4999760000001
 21
292.2328865812323
  0
LINE
  5
481
100
AcDbEntity
  8
Aide PériPhérique
  6
ByLayer
 62
  256
370
   -1
100
AcDbLine
 10
229.9999760000001
 20
287.9027595623101
 11
232.4999759999999
 21
292.2328865812324
  0
LINE
  5
482
100
AcDbEntity
  8
Aide PériPhérique
  6
ByLayer
 62
  256
370
   -1
100
AcDbLine
 10
227.4999760000001
 20
292.2328865812323
 11
232.4999759999999
 21
292.2328865812324
  0
CIRCLE
  5
483
100
AcDbEntity
  8
Aide PériPhérique
  6
ByLayer
 62
  256
370
   -1
100
AcDbCircle
 10
72.49999999999997
 20
292.9027355623101
 40
3
  0
MTEXT
  5
484
100
AcDbEntity
  8
Aide PériPhérique
  6
ByLayer
 62
  256
370
   -1
100
AcDbMText
 10
72.49999999999997
 20
292.9027355623101
 30
0
 40
4
 41
0.8888888888888888
 71
    5
 72
    5
  1
1
  7
iso
210
0
220
0
230
1
 50
0
 73
    2
 44
0.96
  0
MTEXT
  5
485
100
AcDbEntity
  8
Aide PériPhérique
  6
ByLayer
 62
  256
370
   -1
100
AcDbMText
 10
177.4999999999999
 20
292.9027355623102
 30
0
 40
4
 41
1.777777777777778
 71
    5
 72
    5
  1
2
  7
iso
210
0
220
0
230
1
 50
0
 73
    2
 44
0.96
  0
CIRCLE
  5
486
100
AcDbEntity
  8
Aide PériPhérique
  6
ByLayer
 62
  256
370
   -1
100
AcDbCircle
 10
278
 20
292.9027355623101
 40
3
  0
MTEXT
  5
487
100
AcDbEntity
  8
Aide PériPhérique
  6
ByLayer
 62
  256
370
   -1
100
AcDbMText
 10
278
 20
292.9027355623101
 30
0
 40
4
 41
1.777777777778026
 71
    5
 72
    5
  1
3
  7
iso
210
0
220
0
230
1
 50
0
 73
    2
 44
0.96
  0
LINE
  5
488
100
AcDbEntity
  8
Aide PériPhérique
  6
ByLayer
 62
  256
370
   -1
100
AcDbLine
 10
315
 20
287.9027595623102
 11
312.4999999999999
 21
292.2328865812324
  0
LINE
  5
489
100
AcDbEntity
  8
Aide PériPhérique
  6
ByLayer
 62
  256
370
   -1
100
AcDbLine
 10
315
 20
287.9027595623102
 11
317.4999999999999
 21
292.2328865812323
  0
LINE
  5
48A
100
AcDbEntity
  8
Aide PériPhérique
  6
ByLayer
 62
  256
370
   -1
100
AcDbLine
 10
312.4999999999999
 20
292.2328865812324
 11
317.4999999999999
 21
292.2328865812323
  0
CIRCLE
  5
48B
100
AcDbEntity
  8
Aide PériPhérique
  6
ByLayer
 62
  256
370
   -1
100
AcDbCircle
 10
363.0000239999999
 20
292.9027355623103
 40
3
  0
MTEXT
  5
48C
100
AcDbEntity
  8
Aide PériPhérique
  6
ByLayer
 62
  256
370
   -1
100
AcDbMText
 10
363.0000239999999
 20
292.9027355623103
 30
0
 40
4
 41
2.222222222222222
 71
    5
 72
    5
  1
4
  7
iso
210
0
220
0
230
1
 50
0
 73
    2
 44
0.96
  0
CIRCLE
  5
48D
100
AcDbEntity
  8
Aide PériPhérique
  6
ByLayer
 62
  256
370
   -1
100
AcDbCircle
 10
15.00000000000002
 20
223.6527355623101
 40
3
  0
LINE
  5
48E
100
AcDbEntity
  8
Aide PériPhérique
  6
ByLayer
 62
  256
370
   -1
100
AcDbLine
 10
19.99999999999989
 20
149.40273556231
 11
15.66987298107769
 21
146.90273556231
  0
LINE
  5
48F
100
AcDbEntity
  8
Aide PériPhérique
  6
ByLayer
 62
  256
370
   -1
100
AcDbLine
 10
19.99999999999989
 20
149.40273556231
 11
15.66987298107771
 21
151.90273556231
  0
LINE
  5
490
100
AcDbEntity
  8
Aide PériPhérique
  6
ByLayer
 62
  256
370
   -1
100
AcDbLine
 10
15.66987298107769
 20
146.90273556231
 11
15.66987298107771
 21
151.90273556231
  0
CIRCLE
  5
491
100
AcDbEntity
  8
Aide PériPhérique
  6
ByLayer
 62
  256
370
   -1
100
AcDbCircle
 10
15
 20
75.15273556231014
 40
3
  0
MTEXT
  5
492
100
AcDbEntity
  8
Aide PériPhérique
  6
ByLayer
 62
  256
370
   -1
100
AcDbMText
 10
15
 20
75.15273556231014
 30
0
 40
4
 41
2.666666666666667
 71
    5
 72
    5
  1
A
  7
iso
210
0
220
0
230
1
 50
6.283185307179586
 73
    2
 44
0.96
  0
MTEXT
  5
493
100
AcDbEntity
  8
Aide PériPhérique
  6
ByLayer
 62
  256
370
   -1
100
AcDbMText
 10
15.00000000000002
 20
223.6527355623101
 30
0
 40
4
 41
2.222222222222222
 71
    5
 72
    5
  1
B
  7
iso
210
0
220
0
230
1
 50
6.283185307179586
 73
    2
 44
0.96
  0
LINE
  5
494
100
AcDbEntity
  8
Cadre Extérieur
  6
ByLayer
 62
  256
370
   -1
100
AcDbLine
 10
20
 20
287.9027355623101
 11
20
 21
10.90273556231003
  0
LINE
  5
495
100
AcDbEntity
  8
Aide PériPhérique
  6
ByLayer
 62
  256
370
   -1
100
AcDbLine
 10
1.82e-014
 20
297.9027355623101
 11
0
 21
0.9027355623100314
  0
LINE
  5
496
100
AcDbEntity
  8
Cadre Extérieur
  6
ByLayer
 62
  256
370
   -1
100
AcDbLine
 10
20
 20
10.90273556231003
 11
410
 21
10.90273556230998
  0
LINE
  5
497
100
AcDbEntity
  8
Cadre Extérieur
  6
ByLayer
 62
  256
370
   -1
100
AcDbLine
 10
410.000061
 20
66.15291656231018
 11
410
 21
10.90273556230998
  0
LINE
  5
498
100
AcDbEntity
  8
Cadre Extérieur
  6
ByLayer
 62
  256
370
   -1
100
AcDbLine
 10
410
 20
10.90273556230998
 11
222.800018
 21
10.90283656230969
  0
LINE
  5
499
100
AcDbEntity
  8
Symbol ISO
  6
ByLayer
 62
  256
370
   -1
100
AcDbLine
 10
280.2711420000001
 20
58.14561156231
 11
300.2711420000001
 21
58.1456115623099
  0
CIRCLE
  5
49A
100
AcDbEntity
  8
Symbol ISO
  6
ByLayer
 62
  256
370
   -1
100
AcDbCircle
 10
295.4711420000001
 20
58.14561156230977
 40
2.8
  0
CIRCLE
  5
49B
100
AcDbEntity
  8
Symbol ISO
  6
ByLayer
 62
  256
370
   -1
100
AcDbCircle
 10
295.4711420000001
 20
58.14561156230977
 40
1.6
  0
LINE
  5
49C
100
AcDbEntity
  8
Symbol ISO
  6
ByLayer
 62
  256
370
   -1
100
AcDbLine
 10
282.6711419999999
 20
59.74561156230998
 11
282.6711419999999
 21
56.54561156231006
  0
LINE
  5
49D
100
AcDbEntity
  8
Symbol ISO
  6
ByLayer
 62
  256
370
   -1
100
AcDbLine
 10
282.6711419999999
 20
56.54561156231006
 11
289.071142
 21
55.34561156230996
  0
LINE
  5
49E
100
AcDbEntity
  8
Symbol ISO
  6
ByLayer
 62
  256
370
   -1
100
AcDbLine
 10
289.071142
 20
60.94561156231008
 11
289.071142
 21
55.34561156230996
  0
LINE
  5
49F
100
AcDbEntity
  8
Symbol ISO
  6
ByLayer
 62
  256
370
   -1
100
AcDbLine
 10
282.6711419999999
 20
59.74561156230998
 11
289.071142
 21
60.94561156231008
  0
LINE
  5
4A0
100
AcDbEntity
  8
Symbol ISO
  6
ByLayer
 62
  256
370
   -1
100
AcDbLine
 10
295.4711420000001
 20
53.34561156230991
 11
295.4711420000001
 21
62.94561156231008
  0
CIRCLE
  5
4A1
100
AcDbEntity
  8
Aide PériPhérique
  6
ByLayer
 62
  256
370
   -1
100
AcDbCircle
 10
414.9999999999998
 20
223.6527355623099
 40
3
  0
LINE
  5
4A2
100
AcDbEntity
  8
Aide PériPhérique
  6
ByLayer
 62
  256
370
   -1
100
AcDbLine
 10
410.0000000000002
 20
149.40273556231
 11
414.3301270189227
 21
146.9027355623101
  0
LINE
  5
4A3
100
AcDbEntity
  8
Aide PériPhérique
  6
ByLayer
 62
  256
370
   -1
100
AcDbLine
 10
410.0000000000002
 20
149.40273556231
 11
414.3301270189222
 21
151.9027355623098
  0
LINE
  5
4A4
100
AcDbEntity
  8
Aide PériPhérique
  6
ByLayer
 62
  256
370
   -1
100
AcDbLine
 10
414.3301270189227
 20
146.9027355623101
 11
414.3301270189222
 21
151.9027355623098
  0
CIRCLE
  5
4A5
100
AcDbEntity
  8
Aide PériPhérique
  6
ByLayer
 62
  256
370
   -1
100
AcDbCircle
 10
415
 20
75.1527355623101
 40
3
  0
MTEXT
  5
4A6
100
AcDbEntity
  8
Aide PériPhérique
  6
ByLayer
 62
  256
370
   -1
100
AcDbMText
 10
415
 20
75.1527355623101
 30
0
 40
4
 41
2.666666666666667
 71
    5
 72
    5
  1
A
  7
iso
210
0
220
0
230
1
 50
6.283185307179586
 73
    2
 44
0.96
  0
MTEXT
  5
4A7
100
AcDbEntity
  8
Aide PériPhérique
  6
ByLayer
 62
  256
370
   -1
100
AcDbMText
 10
414.9999999999998
 20
223.6527355623099
 30
0
 40
4
 41
2.222222222222222
 71
    5
 72
    5
  1
B
  7
iso
210
0
220
0
230
1
 50
6.283185307179586
 73
    2
 44
0.96
  0
LINE
  5
4A8
100
AcDbEntity
  8
Cadre Extérieur
  6
ByLayer
 62
  256
370
   -1
100
AcDbLine
 10
20
 20
287.9027355623101
 11
410
 21
287.9027355623099
  0
LINE
  5
4A9
100
AcDbEntity
  8
Cadre Extérieur
  6
ByLayer
 62
  256
370
   -1
100
AcDbLine
 10
410
 20
287.9027355623099
 11
410
 21
10.90273556230998
  0
LINE
  5
4AA
100
AcDbEntity
  8
Aide PériPhérique
  6
ByLayer
 62
  256
370
   -1
100
AcDbLine
 10
420
 20
297.9027355623101
 11
1.82e-014
 21
297.9027355623101
  0
LINE
  5
4AB
100
AcDbEntity
  8
Aide PériPhérique
  6
ByLayer
 62
  256
370
   -1
100
AcDbLine
 10
125
 20
0.9027355623100314
 11
125
 21
10.90273556230993
  0
LINE
  5
4AC
100
AcDbEntity
  8
Aide PériPhérique
  6
ByLayer
 62
  256
370
   -1
100
AcDbLine
 10
230
 20
0.9027355623100314
 11
230
 21
10.90273556231051
  0
LINE
  5
4AD
100
AcDbEntity
  8
Aide PériPhérique
  6
ByLayer
 62
  256
370
   -1
100
AcDbLine
 10
124.9999760000001
 20
10.90271156231017
 11
122.499976
 21
6.572584543387936
  0
LINE
  5
4AE
100
AcDbEntity
  8
Aide PériPhérique
  6
ByLayer
 62
  256
370
   -1
100
AcDbLine
 10
124.9999760000001
 20
10.90271156231017
 11
127.4999760000001
 21
6.572584543387763
  0
LINE
  5
4AF
100
AcDbEntity
  8
Aide PériPhérique
  6
ByLayer
 62
  256
370
   -1
100
AcDbLine
 10
122.499976
 20
6.572584543387936
 11
127.4999760000001
 21
6.572584543387763
  0
CIRCLE
  5
4B0
100
AcDbEntity
  8
Aide PériPhérique
  6
ByLayer
 62
  256
370
   -1
100
AcDbCircle
 10
177.4999999999999
 20
5.90273556230905
 40
3
  0
LINE
  5
4B1
100
AcDbEntity
  8
Aide PériPhérique
  6
ByLayer
 62
  256
370
   -1
100
AcDbLine
 10
229.9999760000001
 20
10.90271156231071
 11
227.4999760000001
 21
6.572584543387261
  0
LINE
  5
4B2
100
AcDbEntity
  8
Aide PériPhérique
  6
ByLayer
 62
  256
370
   -1
100
AcDbLine
 10
229.9999760000001
 20
10.90271156231071
 11
232.4999760000001
 21
6.572584543387075
  0
LINE
  5
4B3
100
AcDbEntity
  8
Aide PériPhérique
  6
ByLayer
 62
  256
370
   -1
100
AcDbLine
 10
227.4999760000001
 20
6.572584543387261
 11
232.4999760000001
 21
6.572584543387075
  0
CIRCLE
  5
4B4
100
AcDbEntity
  8
Aide PériPhérique
  6
ByLayer
 62
  256
370
   -1
100
AcDbCircle
 10
72.49999999999999
 20
5.902735562309963
 40
3
  0
MTEXT
  5
4B5
100
AcDbEntity
  8
Aide PériPhérique
  6
ByLayer
 62
  256
370
   -1
100
AcDbMText
 10
72.49999999999999
 20
5.902735562309963
 30
0
 40
4
 41
0.8888888888888888
 71
    5
 72
    5
  1
1
  7
iso
210
0
220
0
230
1
 50
0
 73
    2
 44
0.96
  0
MTEXT
  5
4B6
100
AcDbEntity
  8
Aide PériPhérique
  6
ByLayer
 62
  256
370
   -1
100
AcDbMText
 10
177.4999999999999
 20
5.90273556230905
 30
0
 40
4
 41
1.777777777777778
 71
    5
 72
    5
  1
2
  7
iso
210
0
220
0
230
1
 50
0
 73
    2
 44
0.96
  0
CIRCLE
  5
4B7
100
AcDbEntity
  8
Aide PériPhérique
  6
ByLayer
 62
  256
370
   -1
100
AcDbCircle
 10
278
 20
5.902735562310135
 40
3
  0
MTEXT
  5
4B8
100
AcDbEntity
  8
Aide PériPhérique
  6
ByLayer
 62
  256
370
   -1
100
AcDbMText
 10
278
 20
5.902735562310135
 30
0
 40
4
 41
1.777777777778026
 71
    5
 72
    5
  1
3
  7
iso
210
0
220
0
230
1
 50
0
 73
    2
 44
0.96
  0
LINE
  5
4B9
100
AcDbEntity
  8
Aide PériPhérique
  6
ByLayer
 62
  256
370
   -1
100
AcDbLine
 10
315
 20
10.90271156230965
 11
312.5
 21
6.572584543387691
  0
LINE
  5
4BA
100
AcDbEntity
  8
Aide PériPhérique
  6
ByLayer
 62
  256
370
   -1
100
AcDbLine
 10
315
 20
10.90271156230965
 11
317.5
 21
6.572584543387954
  0
LINE
  5
4BB
100
AcDbEntity
  8
Aide PériPhérique
  6
ByLayer
 62
  256
370
   -1
100
AcDbLine
 10
312.5
 20
6.572584543387691
 11
317.5
 21
6.572584543387954
  0
CIRCLE
  5
4BC
100
AcDbEntity
  8
Aide PériPhérique
  6
ByLayer
 62
  256
370
   -1
100
AcDbCircle
 10
363.0000239999999
 20
5.902735562309645
 40
3
  0
MTEXT
  5
4BD
100
AcDbEntity
  8
Aide PériPhérique
  6
ByLayer
 62
  256
370
   -1
100
AcDbMText
 10
363.0000239999999
 20
5.902735562309645
 30
0
 40
4
 41
2.222222222222222
 71
    5
 72
    5
  1
4
  7
iso
210
0
220
0
230
1
 50
0
 73
    2
 44
0.96
  0
LINE
  5
4BE
100
AcDbEntity
  8
Aide PériPhérique
  6
ByLayer
 62
  256
370
   -1
100
AcDbLine
 10
420
 20
0.9027355623100314
 11
420
 21
297.9027355623101
  0
LINE
  5
4BF
100
AcDbEntity
  8
Aide PériPhérique
  6
ByLayer
 62
  256
370
   -1
100
AcDbLine
 10
3.55e-014
 20
0.9027355623100314
 11
420
 21
0.9027355623100314
  0
LINE
  5
4C0
100
AcDbEntity
  8
Aide PériPhérique
  6
ByLayer
 62
  256
370
   -1
100
AcDbLine
 10
124.9999999999999
 20
297.9027355623103
 11
125
 21
287.9027355623101
  0
LINE
  5
4C1
100
AcDbEntity
  8
Aide PériPhérique
  6
ByLayer
 62
  256
370
   -1
100
AcDbLine
 10
229.9999999999999
 20
297.9027355623103
 11
230
 21
287.9027355623101
  0
LINE
  5
4C2
100
AcDbEntity
  8
Aide PériPhérique
  6
ByLayer
 62
  256
370
   -1
100
AcDbLine
 10
124.999976
 20
287.9027595623099
 11
122.4999759999999
 21
292.2328865812324
  0
LINE
  5
4C3
100
AcDbEntity
  8
Aide PériPhérique
  6
ByLayer
 62
  256
370
   -1
100
AcDbLine
 10
124.999976
 20
287.9027595623099
 11
127.4999760000001
 21
292.2328865812323
  0
LINE
  5
4C4
100
AcDbEntity
  8
Aide PériPhérique
  6
ByLayer
 62
  256
370
   -1
100
AcDbLine
 10
122.4999759999999
 20
292.2328865812324
 11
127.4999760000001
 21
292.2328865812323
  0
CIRCLE
  5
4C5
100
AcDbEntity
  8
Aide PériPhérique
  6
ByLayer
 62
  256
370
   -1
100
AcDbCircle
 10
177.4999999999999
 20
292.9027355623102
 40
3
  0
LINE
  5
4C6
100
AcDbEntity
  8
Aide PériPhérique
  6
ByLayer
 62
  256
370
   -1
100
AcDbLine
 10
229.9999760000001
 20
287.9027595623101
 11
227.4999760000001
 21
292.2328865812323
  0
LINE
  5
4C7
100
AcDbEntity
  8
Aide PériPhérique
  6
ByLayer
 62
  256
370
   -1
100
AcDbLine
 10
229.9999760000001
 20
287.9027595623101
 11
232.4999759999999
 21
292.2328865812324
  0
LINE
  5
4C8
100
AcDbEntity
  8
Aide PériPhérique
  6
ByLayer
 62
  256
370
   -1
100
AcDbLine
 10
227.4999760000001
 20
292.2328865812323
 11
232.4999759999999
 21
292.2328865812324
  0
CIRCLE
  5
4C9
100
AcDbEntity
  8
Aide PériPhérique
  6
ByLayer
 62
  256
370
   -1
100
AcDbCircle
 10
72.49999999999997
 20
292.9027355623101
 40
3
  0
MTEXT
  5
4CA
100
AcDbEntity
  8
Aide PériPhérique
  6
ByLayer
 62
  256
370
   -1
100
AcDbMText
 10
72.49999999999997
 20
292.9027355623101
 30
0
 40
4
 41
0.8888888888888888
 71
    5
 72
    5
  1
1
  7
iso
210
0
220
0
230
1
 50
0
 73
    2
 44
0.96
  0
MTEXT
  5
4CB
100
AcDbEntity
  8
Aide PériPhérique
  6
ByLayer
 62
  256
370
   -1
100
AcDbMText
 10
177.4999999999999
 20
292.9027355623102
 30
0
 40
4
 41
1.777777777777778
 71
    5
 72
    5
  1
2
  7
iso
210
0
220
0
230
1
 50
0
 73
    2
 44
0.96
  0
CIRCLE
  5
4CC
100
AcDbEntity
  8
Aide PériPhérique
  6
ByLayer
 62
  256
370
   -1
100
AcDbCircle
 10
278
 20
292.9027355623101
 40
3
  0
MTEXT
  5
4CD
100
AcDbEntity
  8
Aide PériPhérique
  6
ByLayer
 62
  256
370
   -1
100
AcDbMText
 10
278
 20
292.9027355623101
 30
0
 40
4
 41
1.777777777778026
 71
    5
 72
    5
  1
3
  7
iso
210
0
220
0
230
1
 50
0
 73
    2
 44
0.96
  0
LINE
  5
4CE
100
AcDbEntity
  8
Aide PériPhérique
  6
ByLayer
 62
  256
370
   -1
100
AcDbLine
 10
315
 20
287.9027595623102
 11
312.4999999999999
 21
292.2328865812324
  0
LINE
  5
4CF
100
AcDbEntity
  8
Aide PériPhérique
  6
ByLayer
 62
  256
370
   -1
100
AcDbLine
 10
315
 20
287.9027595623102
 11
317.4999999999999
 21
292.2328865812323
  0
LINE
  5
4D0
100
AcDbEntity
  8
Aide PériPhérique
  6
ByLayer
 62
  256
370
   -1
100
AcDbLine
 10
312.4999999999999
 20
292.2328865812324
 11
317.4999999999999
 21
292.2328865812323
  0
CIRCLE
  5
4D1
100
AcDbEntity
  8
Aide PériPhérique
  6
ByLayer
 62
  256
370
   -1
100
AcDbCircle
 10
363.0000239999999
 20
292.9027355623103
 40
3
  0
MTEXT
  5
4D2
100
AcDbEntity
  8
Aide PériPhérique
  6
ByLayer
 62
  256
370
   -1
100
AcDbMText
 10
363.0000239999999
 20
292.9027355623103
 30
0
 40
4
 41
2.222222222222222
 71
    5
 72
    5
  1
4
  7
iso
210
0
220
0
230
1
 50
0
 73
    2
 44
0.96
  0
LWPOLYLINE
  5
4D3
100
AcDbEntity
  8
4_Traits forts
  6
ByLayer
 62
  256
370
   18
100
AcDbPolyline
 90
    4
 70
    1
 43
0
 10
18.42700729927009
 20
9.032297606105658
 10
18.42700729927009
 20
9.032297606105658
 10
18.42700729927009
 20
9.032297606105658
 10
18.42700729927009
 20
9.032297606105658
  0
LINE
  5
4D4
100
AcDbEntity
  8
2_Fin
  6
ByLayer
 62
  256
370
   18
100
AcDbLine
 10
222.8213251035384
 20
15.9582305017383
 11
321.5184585953459
 21
15.9582305017383
  0
LINE
  5
4D5
100
AcDbEntity
  8
2_Fin
  6
ByLayer
 62
  256
370
   18
100
AcDbLine
 10
246.6870726371506
 20
15.9582305017383
 11
277.2441512549532
 21
15.9582305017383
  0
LINE
  5
4D6
100
AcDbEntity
  8
2_Fin
  6
ByLayer
 62
  256
370
   18
100
AcDbLine
 10
277.2441512549532
 20
15.9582305017383
 11
277.2441512549532
 21
66.36625800263887
  0
LINE
  5
4D7
100
AcDbEntity
  8
2_Fin
  6
ByLayer
 62
  256
370
   18
100
AcDbLine
 10
302.2251206359305
 20
66.36625800263887
 11
302.2251206359305
 21
16.06975268647481
  0
LINE
  5
4D8
100
AcDbEntity
  8
Cadre Extérieur
  6
ByLayer
 62
  256
370
   35
100
AcDbLine
 10
222.8
 20
66.15283556231003
 11
222.8
 21
10.90283556231003
  0
LINE
  5
4D9
100
AcDbEntity
  8
4_Traits forts
  6
ByLayer
 62
  256
370
   35
100
AcDbLine
 10
223.261
 20
66.15283556231003
 11
409.797
 21
66.15283556231003
  0
LINE
  5
4DA
100
AcDbEntity
  8
2_Fin
  6
ByLayer
 62
  256
370
   18
100
AcDbLine
 10
222.8213251035384
 20
51.42228524794712
 11
302.336642820667
 21
51.42228524794712
  0
MTEXT
  5
4DB
100
AcDbEntity
  8
text
  6
ByLayer
 62
  256
370
   18
100
AcDbMText
 10
323.7172209581431
 20
63.82242076262516
 30
0
 40
3
 41
7.14286
 71
    1
 72
    1
  1
Ech
  7
romans
210
0
220
0
230
1
 50
0
 73
    2
 44
1
  0
LINE
  5
4DC
100
AcDbEntity
  8
2_Fin
  6
ByLayer
 62
  256
370
   18
100
AcDbLine
 10
321.76319346745
 20
11.19394701329325
 11
321.76319346745
 21
66.03698525207724
  0
LINE
  5
4DD
100
AcDbEntity
  8
2_Fin
  6
ByLayer
 62
  256
370
   18
100
AcDbLine
 10
321.76319346745
 20
59.26302328434146
 11
409.8246990480153
 21
59.26302328434146
  0
LINE
  5
4DE
100
AcDbEntity
  8
2_Fin
  6
ByLayer
 62
  256
370
   18
100
AcDbLine
 10
383.1196566752107
 20
59.26302328434146
 11
383.1196566752107
 21
66.16725375145677
  0
MTEXT
  5
4DF
100
AcDbEntity
  8
text
  6
ByLayer
 62
  256
370
   18
100
AcDbMText
 10
323.3264154600045
 20
58.35114378868472
 30
0
 40
3
 41
16.000001
 71
    1
 72
    1
  1
Matière
  7
romans
210
0
220
0
230
1
 50
0
 73
    2
 44
1
  0
LINE
  5
4E0
100
AcDbEntity
  8
2_Fin
  6
ByLayer
 62
  256
370
   18
100
AcDbLine
 10
321.8934619668295
 20
53.53120931164194
 11
409.8246990480153
 21
53.53120931164194
  0
LINE
  5
4E1
100
AcDbEntity
  8
2_Fin
  6
ByLayer
 62
  256
370
   30
100
AcDbLine
 10
321.76319346745
 20
27.86831493387365
 11
409.9549675473948
 21
27.86831493387365
  0
LINE
  5
4E2
100
AcDbEntity
  8
2_Fin
  6
ByLayer
 62
  256
370
   30
100
AcDbLine
 10
388.069859651633
 20
16.14414998971556
 11
388.4606651497716
 21
16.14414998971556
  0
LINE
  5
4E3
100
AcDbEntity
  8
2_Fin
  6
ByLayer
 62
  256
370
   30
100
AcDbLine
 10
321.8934619668295
 20
16.14414998971556
 11
409.8246990480153
 21
16.14414998971556
  0
LINE
  5
4E4
100
AcDbEntity
  8
2_Fin
  6
ByLayer
 62
  256
370
   30
100
AcDbLine
 10
399.7499901734657
 20
16.14414998971556
 11
399.6926536860628
 21
16.14414998971556
  0
LINE
  5
4E5
100
AcDbEntity
  8
2_Fin
  6
ByLayer
 62
  256
370
   30
100
AcDbLine
 10
399.6926536860628
 20
16.14414998971556
 11
399.6926536860628
 21
27.67887517949426
  0
MTEXT
  5
4E6
100
AcDbEntity
  8
text
  6
ByLayer
 62
  256
370
   30
100
AcDbMText
 10
323.5273344034894
 20
22.28022291730899
 30
0
 40
5
 41
6.933333333333334
 71
    1
 72
    1
  1
N%%D
  7
romans
210
0
220
0
230
1
 50
0
 73
    2
 44
1
  0
MTEXT
  5
4E7
100
AcDbEntity
  8
text
  6
ByLayer
 62
  256
370
   30
100
AcDbMText
 10
322.6457885331801
 20
15.44824242241241
 30
0
 40
3
 41
27.535722
 71
    1
 72
    1
  1
Dessiné par:
  7
romans
210
0
220
0
230
1
 50
0
 73
    2
 44
1
  0
ENDBLK
  5
7C
330
7A
100
AcDbEntity
  8
0
100
AcDbBlockEnd
  0
ENDSEC
  0
SECTION
  2
ENTITIES
  0
LINE
  5
4E8
100
AcDbEntity
  8
4_Traits forts
  6
ByLayer
 62
  256
370
   -1
100
AcDbLine
 10
8.661726531613169
 20
286.9199103925955
 11
8.661726531613169
 21
10.36230182559245
  0
LINE
  5
4E9
100
AcDbEntity
  8
Cadre Extérieur
  6
ByLayer
 62
  256
370
   -1
100
AcDbLine
 10
202.9096285190161
 20
65.10014522314978
 11
202.9095675190161
 21
9.849964223149575
  0
LINE
  5
4EA
100
AcDbEntity
  8
Cadre Extérieur
  6
ByLayer
 62
  256
370
   -1
100
AcDbLine
 10
202.9095675190161
 20
9.849964223149575
 11
15.70958551901603
 21
9.850065223149285
  0
LINE
  5
4EB
100
AcDbEntity
  8
Symbol ISO
  6
ByLayer
 62
  256
370
   -1
100
AcDbLine
 10
73.18070951901618
 20
57.09284022314959
 11
93.18070951901618
 21
57.09284022314949
  0
CIRCLE
  5
4EC
100
AcDbEntity
  8
Symbol ISO
  6
ByLayer
 62
  256
370
   -1
100
AcDbCircle
 10
88.38070951901616
 20
57.09284022314936
 40
2.8
  0
CIRCLE
  5
4ED
100
AcDbEntity
  8
Symbol ISO
  6
ByLayer
 62
  256
370
   -1
100
AcDbCircle
 10
88.38070951901616
 20
57.09284022314936
 40
1.6
  0
LINE
  5
4EE
100
AcDbEntity
  8
Symbol ISO
  6
ByLayer
 62
  256
370
   -1
100
AcDbLine
 10
75.58070951901598
 20
58.69284022314957
 11
75.58070951901598
 21
55.49284022314965
  0
LINE
  5
4EF
100
AcDbEntity
  8
Symbol ISO
  6
ByLayer
 62
  256
370
   -1
100
AcDbLine
 10
75.58070951901598
 20
55.49284022314965
 11
81.98070951901607
 21
54.29284022314955
  0
LINE
  5
4F0
100
AcDbEntity
  8
Symbol ISO
  6
ByLayer
 62
  256
370
   -1
100
AcDbLine
 10
81.98070951901607
 20
59.89284022314967
 11
81.98070951901607
 21
54.29284022314955
  0
LINE
  5
4F1
100
AcDbEntity
  8
Symbol ISO
  6
ByLayer
 62
  256
370
   -1
100
AcDbLine
 10
75.58070951901598
 20
58.69284022314957
 11
81.98070951901607
 21
59.89284022314967
  0
LINE
  5
4F2
100
AcDbEntity
  8
Symbol ISO
  6
ByLayer
 62
  256
370
   -1
100
AcDbLine
 10
88.38070951901616
 20
52.2928402231495
 11
88.38070951901616
 21
61.89284022314967
  0
LINE
  5
4F3
100
AcDbEntity
  8
Cadre Extérieur
  6
ByLayer
 62
  256
370
   -1
100
AcDbLine
 10
202.9095675190161
 20
286.8499642231495
 11
202.9095675190161
 21
9.849964223149575
  0
LINE
  5
4F4
100
AcDbEntity
  8
Aide PériPhérique
  6
ByLayer
 62
  256
370
   -1
100
AcDbLine
 10
212.9095675190161
 20
-0.1500357768503726
 11
212.9095675190161
 21
296.8499642231497
  0
LINE
  5
4F5
100
AcDbEntity
  8
Cadre Extérieur
  6
ByLayer
 62
  256
370
   -1
100
AcDbLine
 10
202.9096285190161
 20
65.10014522314978
 11
202.9095675190161
 21
9.849964223149575
  0
LINE
  5
4F6
100
AcDbEntity
  8
Cadre Extérieur
  6
ByLayer
 62
  256
370
   -1
100
AcDbLine
 10
202.9095675190161
 20
9.849964223149575
 11
15.70958551901603
 21
9.850065223149285
  0
LINE
  5
4F7
100
AcDbEntity
  8
Symbol ISO
  6
ByLayer
 62
  256
370
   -1
100
AcDbLine
 10
73.18070951901618
 20
57.09284022314959
 11
93.18070951901618
 21
57.09284022314949
  0
CIRCLE
  5
4F8
100
AcDbEntity
  8
Symbol ISO
  6
ByLayer
 62
  256
370
   -1
100
AcDbCircle
 10
88.38070951901616
 20
57.09284022314936
 40
2.8
  0
CIRCLE
  5
4F9
100
AcDbEntity
  8
Symbol ISO
  6
ByLayer
 62
  256
370
   -1
100
AcDbCircle
 10
88.38070951901616
 20
57.09284022314936
 40
1.6
  0
LINE
  5
4FA
100
AcDbEntity
  8
Symbol ISO
  6
ByLayer
 62
  256
370
   -1
100
AcDbLine
 10
75.58070951901598
 20
58.69284022314957
 11
75.58070951901598
 21
55.49284022314965
  0
LINE
  5
4FB
100
AcDbEntity
  8
Symbol ISO
  6
ByLayer
 62
  256
370
   -1
100
AcDbLine
 10
75.58070951901598
 20
55.49284022314965
 11
81.98070951901607
 21
54.29284022314955
  0
LINE
  5
4FC
100
AcDbEntity
  8
Symbol ISO
  6
ByLayer
 62
  256
370
   -1
100
AcDbLine
 10
81.98070951901607
 20
59.89284022314967
 11
81.98070951901607
 21
54.29284022314955
  0
LINE
  5
4FD
100
AcDbEntity
  8
Symbol ISO
  6
ByLayer
 62
  256
370
   -1
100
AcDbLine
 10
75.58070951901598
 20
58.69284022314957
 11
81.98070951901607
 21
59.89284022314967
  0
LINE
  5
4FE
100
AcDbEntity
  8
Symbol ISO
  6
ByLayer
 62
  256
370
   -1
100
AcDbLine
 10
88.38070951901616
 20
52.2928402231495
 11
88.38070951901616
 21
61.89284022314967
  0
LINE
  5
4FF
100
AcDbEntity
  8
Cadre Extérieur
  6
ByLayer
 62
  256
370
   -1
100
AcDbLine
 10
202.9095675190161
 20
286.8499642231495
 11
202.9095675190161
 21
9.849964223149575
  0
LINE
  5
500
100
AcDbEntity
  8
Aide PériPhérique
  6
ByLayer
 62
  256
370
   -1
100
AcDbLine
 10
212.9095675190161
 20
-0.1500357768503726
 11
212.9095675190161
 21
296.8499642231497
  0
LINE
  5
501
100
AcDbEntity
  8
2_Fin
  6
ByLayer
 62
  256
370
   18
100
AcDbLine
 10
15.73089262255445
 20
14.9054591625779
 11
114.428026114362
 21
14.9054591625779
  0
LINE
  5
502
100
AcDbEntity
  8
2_Fin
  6
ByLayer
 62
  256
370
   18
100
AcDbLine
 10
39.59664015616664
 20
14.9054591625779
 11
70.15371877396925
 21
14.9054591625779
  0
LINE
  5
503
100
AcDbEntity
  8
2_Fin
  6
ByLayer
 62
  256
370
   18
100
AcDbLine
 10
70.15371877396925
 20
14.9054591625779
 11
70.15371877396925
 21
65.31348666347847
  0
LINE
  5
504
100
AcDbEntity
  8
2_Fin
  6
ByLayer
 62
  256
370
   18
100
AcDbLine
 10
95.13468815494659
 20
65.31348666347847
 11
95.13468815494659
 21
15.01698134731441
  0
LINE
  5
505
100
AcDbEntity
  8
Cadre Extérieur
  6
ByLayer
 62
  256
370
   35
100
AcDbLine
 10
15.70956751901605
 20
65.10006422314963
 11
15.70956751901605
 21
9.850064223149625
  0
LINE
  5
506
100
AcDbEntity
  8
4_Traits forts
  6
ByLayer
 62
  256
370
   35
100
AcDbLine
 10
16.17056751901603
 20
65.10006422314963
 11
202.7065675190161
 21
65.10006422314963
  0
LINE
  5
507
100
AcDbEntity
  8
2_Fin
  6
ByLayer
 62
  256
370
   18
100
AcDbLine
 10
15.73089262255445
 20
50.36951390878671
 11
95.24621033968307
 21
50.36951390878671
  0
MTEXT
  5
508
100
AcDbEntity
  8
text
  6
ByLayer
 62
  256
370
   18
100
AcDbMText
 10
116.6267884771592
 20
62.76964942346475
 30
0
 40
3
 41
7.14286
 71
    1
 72
    1
  1
Ech
  7
romans
210
0
220
0
230
1
 50
0
 73
    2
 44
1
  0
LINE
  5
509
100
AcDbEntity
  8
2_Fin
  6
ByLayer
 62
  256
370
   18
100
AcDbLine
 10
114.672760986466
 20
10.14117567413285
 11
114.672760986466
 21
64.98421391291684
  0
LINE
  5
50A
100
AcDbEntity
  8
2_Fin
  6
ByLayer
 62
  256
370
   18
100
AcDbLine
 10
114.672760986466
 20
58.21025194518105
 11
202.7342665670314
 21
58.21025194518105
  0
LINE
  5
50B
100
AcDbEntity
  8
2_Fin
  6
ByLayer
 62
  256
370
   18
100
AcDbLine
 10
176.0292241942268
 20
58.21025194518105
 11
176.0292241942268
 21
65.11448241229637
  0
MTEXT
  5
50C
100
AcDbEntity
  8
text
  6
ByLayer
 62
  256
370
   18
100
AcDbMText
 10
116.2359829790206
 20
57.29837244952432
 30
0
 40
3
 41
16.000001
 71
    1
 72
    1
  1
Matière
  7
romans
210
0
220
0
230
1
 50
0
 73
    2
 44
1
  0
LINE
  5
50D
100
AcDbEntity
  8
2_Fin
  6
ByLayer
 62
  256
370
   18
100
AcDbLine
 10
114.8030294858455
 20
52.47843797248153
 11
202.7342665670314
 21
52.47843797248153
  0
LINE
  5
50E
100
AcDbEntity
  8
2_Fin
  6
ByLayer
 62
  256
370
   30
100
AcDbLine
 10
114.672760986466
 20
26.81554359471324
 11
202.8645350664109
 21
26.81554359471324
  0
LINE
  5
50F
100
AcDbEntity
  8
2_Fin
  6
ByLayer
 62
  256
370
   30
100
AcDbLine
 10
180.9794271706491
 20
15.09137865055516
 11
181.3702326687877
 21
15.09137865055516
  0
LINE
  5
510
100
AcDbEntity
  8
2_Fin
  6
ByLayer
 62
  256
370
   30
100
AcDbLine
 10
114.8030294858455
 20
15.09137865055516
 11
202.7342665670314
 21
15.09137865055516
  0
LINE
  5
511
100
AcDbEntity
  8
2_Fin
  6
ByLayer
 62
  256
370
   30
100
AcDbLine
 10
192.6595576924817
 20
15.09137865055516
 11
192.6022212050788
 21
15.09137865055516
  0
LINE
  5
512
100
AcDbEntity
  8
2_Fin
  6
ByLayer
 62
  256
370
   30
100
AcDbLine
 10
192.6022212050788
 20
15.09137865055516
 11
192.6022212050788
 21
26.62610384033385
  0
MTEXT
  5
513
100
AcDbEntity
  8
text
  6
ByLayer
 62
  256
370
   30
100
AcDbMText
 10
116.4369019225055
 20
21.22745157814859
 30
0
 40
5
 41
6.933333333333334
 71
    1
 72
    1
  1
N%%D
  7
romans
210
0
220
0
230
1
 50
0
 73
    2
 44
1
  0
MTEXT
  5
514
100
AcDbEntity
  8
text
  6
ByLayer
 62
  256
370
   30
100
AcDbMText
 10
115.5553560521962
 20
14.39547108325201
 30
0
 40
3
 41
27.535722
 71
    1
 72
    1
  1
Dessiné par:
  7
romans
210
0
220
0
230
1
 50
0
 73
    2
 44
1
  0
LINE
  5
515
100
AcDbEntity
  8
4_Traits forts
  6
ByLayer
 62
  256
370
   -1
100
AcDbLine
 10
8.661726531613169
 20
286.9199103925955
 11
202.9095675190161
 21
286.8499642231495
  0
LINE
  5
516
100
AcDbEntity
  8
Aide PériPhérique
  6
ByLayer
 62
  256
370
   -1
100
AcDbLine
 10
0.6671149041301589
 20
296.8499642231499
 11
0.6671149041301589
 21
-1.33422980826034
  0
LINE
  5
517
100
AcDbEntity
  8
Aide PériPhérique
  6
ByLayer
 62
  256
370
   -1
100
AcDbLine
 10
0.6671149041301589
 20
296.8499642231499
 11
212.9095675190161
 21
296.8499642231497
  0
LINE
  5
518
100
AcDbEntity
  8
Aide PériPhérique
  6
ByLayer
 62
  256
370
   -1
100
AcDbLine
 10
0.6671149041301589
 20
-1.33422980826034
 11
212.9095675190161
 21
-0.1500357768503726
  0
LINE
  5
519
100
AcDbEntity
  8
4_Traits forts
  6
ByLayer
 62
  256
370
   -1
100
AcDbLine
 10
202.9095675190161
 20
9.849964223149575
 11
8.430509830528443
 21
9.849964223149575
  0
LINE
  5
51A
100
AcDbEntity
  8
4_Traits forts
  6
ByLayer
 62
  256
370
   -1
100
AcDbLine
 10
8.661726531613169
 20
286.9199103925955
 11
99.48576513183131
 21
286.8872058149724
  0
LINE
  5
51B
100
AcDbEntity
  8
4_Traits forts
  6
ByLayer
 62
  256
370
   -1
100
AcDbLine
 10
99.48576513183131
 20
286.8872058149724
 11
100.0475530962061
 21
286.8870035222934
  0
LINE
  5
51C
100
AcDbEntity
  8
4_Traits forts
  6
ByLayer
 62
  256
370
   -1
100
AcDbLine
 10
100.0475530962061
 20
286.8870035222934
 11
100.2348831940333
 21
286.886936067115
  0
LINE
  5
51D
100
AcDbEntity
  8
4_Traits forts
  6
ByLayer
 62
  256
370
   -1
100
AcDbLine
 10
100.2348831940333
 20
286.886936067115
 11
100.234950637069
 21
286.8869360428296
  0
LINE
  5
51E
100
AcDbEntity
  8
4_Traits forts
  6
ByLayer
 62
  256
370
   -1
100
AcDbLine
 10
100.234950637069
 20
286.8869360428296
 11
99.95383746501564
 21
286.8870372680965
  0
POINT
  5
51F
100
AcDbEntity
  8
4_Traits forts
  6
ByLayer
 62
  256
370
   -1
100
AcDbPoint
 10
100
 20
200
  0
LINE
  5
520
100
AcDbEntity
  8
4_Traits forts
  6
ByLayer
 62
  256
370
   -1
100
AcDbLine
 10
100
 20
200
 11
120
 21
200
  0
LINE
  5
521
100
AcDbEntity
  8
4_Traits forts
  6
ByLayer
 62
  256
370
   -1
100
AcDbLine
 10
120
 20
200
 11
120
 21
220
  0
LINE
  5
522
100
AcDbEntity
  8
4_Traits forts
  6
ByLayer
 62
  256
370
   -1
100
AcDbLine
 10
120
 20
220
 11
100
 21
220
  0
LINE
  5
523
100
AcDbEntity
  8
4_Traits forts
  6
ByLayer
 62
  256
370
   -1
100
AcDbLine
 10
100
 20
220
 11
100
 21
200
  0
MTEXT
  5
524
100
AcDbEntity
  8
4_Traits forts
  6
ByLayer
 62
  256
370
   -1
100
AcDbMText
 10
101.140056321198
 20
200.3135004361506
 30
0
 40
3
 41
8.500000000000325
 71
    7
 72
    1
  1
@0,0
  7
standard
210
0
220
0
230
1
 50
0
 73
    2
 44
1
  0
MTEXT
  5
525
100
AcDbEntity
  8
4_Traits forts
  6
ByLayer
 62
  256
370
   -1
100
AcDbMText
 10
121.6490121863299
 20
200.5944450370428
 30
0
 40
2
 41
7.222222222222438
 71
    7
 72
    1
  1
@20,0
  7
standard
210
0
220
0
230
1
 50
0
 73
    2
 44
1
  0
MTEXT
  5
526
100
AcDbEntity
  8
4_Traits forts
  6
ByLayer
 62
  256
370
   -1
100
AcDbMText
 10
121.5553639860325
 20
220.6351599006876
 30
0
 40
2
 41
8.777777777777994
 71
    7
 72
    1
  1
@20,20
  7
standard
210
0
220
0
230
1
 50
0
 73
    2
 44
1
  0
MTEXT
  5
527
100
AcDbEntity
  8
4_Traits forts
  6
ByLayer
 62
  256
370
   -1
100
AcDbMText
 10
95.98940530484074
 20
220.9161045015798
 30
0
 40
2
 41
7.222222222222438
 71
    7
 72
    1
  1
@0,20
  7
standard
210
0
220
0
230
1
 50
0
 73
    2
 44
1
  0
LINE
  5
528
100
AcDbEntity
  8
4_Traits forts
  6
ByLayer
 62
  256
370
   -1
100
AcDbLine
 10
100
 20
200
 11
100
 21
180
  0
LINE
  5
529
100
AcDbEntity
  8
4_Traits forts
  6
ByLayer
 62
  256
370
   -1
100
AcDbLine
 10
100
 20
180
 11
120
 21
180
  0
LINE
  5
52A
100
AcDbEntity
  8
4_Traits forts
  6
ByLayer
 62
  256
370
   -1
100
AcDbLine
 10
120
 20
180
 11
120
 21
200
  0
MTEXT
  5
52B
100
AcDbEntity
  8
4_Traits forts
  6
ByLayer
 62
  256
370
   -1
100
AcDbMText
 10
122.3045495884117
 20
179.5235999701266
 30
0
 40
2
 41
10.33333333333355
 71
    7
 72
    1
  1
@20,-20
  7
standard
210
0
220
0
230
1
 50
0
 73
    2
 44
1
  0
MTEXT
  5
52C
100
AcDbEntity
  8
4_Traits forts
  6
ByLayer
 62
  256
370
   -1
100
AcDbMText
 10
90.30373769948744
 20
179.6997671061363
 30
0
 40
2
 41
8.777777777777994
 71
    7
 72
    1
  1
@0,-20
  7
standard
210
0
220
0
230
1
 50
0
 73
    2
 44
1
  0
LINE
  5
52D
100
AcDbEntity
  8
4_Traits forts
  6
ByLayer
 62
  256
370
   -1
100
AcDbLine
 10
100
 20
200
 11
80
 21
200
  0
LINE
  5
52E
100
AcDbEntity
  8
4_Traits forts
  6
ByLayer
 62
  256
370
   -1
100
AcDbLine
 10
80
 20
200
 11
80
 21
220
  0
LINE
  5
52F
100
AcDbEntity
  8
4_Traits forts
  6
ByLayer
 62
  256
370
   -1
100
AcDbLine
 10
80
 20
220
 11
100
 21
220
  0
MTEXT
  5
530
100
AcDbEntity
  8
4_Traits forts
  6
ByLayer
 62
  256
370
   -1
100
AcDbMText
 10
69.73545003709832
 20
200.0411195349906
 30
0
 40
2
 41
8.777777777777994
 71
    7
 72
    1
  1
@-20,0
  7
standard
210
0
220
0
230
1
 50
0
 73
    2
 44
1
  0
MTEXT
  5
531
100
AcDbEntity
  8
4_Traits forts
  6
ByLayer
 62
  256
370
   -1
100
AcDbMText
 10
69.17756643680153
 20
218.2121853732288
 30
0
 40
2
 41
10.33333333333355
 71
    7
 72
    1
  1
@-20,20
  7
standard
210
0
220
0
230
1
 50
0
 73
    2
 44
1
  0
ENDSEC
  0
SECTION
  2
OBJECTS
  0
DICTIONARY
  5
C
330
0
100
AcDbDictionary
281
    1
  3
ACAD_GROUP
350
D
  0
DICTIONARY
  5
D
330
C
100
AcDbDictionary
281
    1
  0
ENDSEC
  0
EOF
